MUZBANK



A Most Complete Bank Of Music Information

МУЗЫКАЛЬНО-ИНФОРМАЦИОННЫЙ БАНК

Поиск по сайту







    ББетховен Людвиг ван • Соната №14 «Лунная» (аккорды и текст - chords & lyrics)


    1005

    Print

    Видео «Соната №14 «Лунная» (Бетховен Людвиг ван)»

    Видео клипы к песне подбираются автоматически сайтом youtube. Возможны некоторые несоответствия клипов песне.

    ↑ Спрятать рекламу ↑



    Download


    1-|------------------------|------------------------|
    2-|-----1-----1-----1-----1|-----1-----1-----1-----1|
    3-|---2-----2-----2-----2--|---2-----2-----2-----2--|
    4-|-2-----2-----2-----2----|-2-----2-----2-----2----|
    5-|-0----------------------|------------------------|
    6-|------------------------|-3----------------------|
     
    1-|------------------------|------------------------|
    2-|-----1-----1-----3-----3|-----3-----1-----0-----0|
    3-|---2-----2-----3-----3--|---1-----2-----2-----1--|
    4-|-3-----3-----3-----3----|-2-----2-----2-----0----|
    5-|-------------5----------|------------------------|
    6-|-1----------------------|-0-----------0----------|
     
    1-|-------------------0----0|--0-----------------0----0|
    2-|-----------1-----1-----1-|------3-----3-----3-----3-|
    3-|-2---2---2-----2-----2---|----4-----4-----4-----4---|
    4-|-2-2---2-----2-----2-----|--------2-----2-----2-----|
    5-|-0-----------------------|--------------------------|
    6-|-------------------------|--0-----------------------|
     
    1-|-0-----------1----------|-0-----------------3----|
    2-|-----1-----1-----3-----3|-----1-----1-3---0-----0|
    3-|---2-----2-----2-----2--|---0-----0-----0-----0--|
    4-|-2-----2-----0-----3----|-2-----2-----3-----3----|
    5-|-0----------------------|------------------------|
    6-|------------------------|-3-----------3----------|
     
    1-|------------------------|--------------------------|
    2-|-1---1-----1-----1-----1|--------------------------|
    3-|---0-----0-----0-----0--|-----5-----5-----5-8---5h8|
    4-|-2-----2-----2-----2----|---5-----5-----5-----5----|
    5-|-3----------------------|-6-----6-----6-----6------|
    6-|------------------------|-8------------------------|
     
    1-|-------------------------|------------------------|
    2-|-4-----------------4----4|-4---------------1-3---1|
    3-|-----6-----6-----6-----6-|-----5-----5---2-----2--|
    4-|---5-----5-----5-----5---|---6-----6---1-----0----|
    5-|-------6-----6-----6-----|-6-----6----------------|
    6-|-6-----------------------|-4-----3-----2----------|
     
    1-|------------------------|------------------------|
    2-|-3-----------4-----1----|-3-----------3----------|
    3-|-----3-----3---0-2---0-2|-----3-----3-----2-----2|
    4-|---5-----5---1-----1----|---5-----5-----4-----4--|
    5-|-5-----5-----3----------|-5-----5-----5-----5----|
    6-|-3----------------------|------------------------|
     
    1-|-------------------3----|s4-----------------2----|
    2-|-----3-----3-----3-----3|-----4-----4-----4-----4|
    3-|---3-----3-----4-----4--|---5-----5-----5-----5--|
    4-|-5-----5-----5-----5----|-5-----5-----5----------|
    5-|------------------------|-------3-----------3----|
    6-|-3=============================------------------|
     
    1-|-3-----------------3----|s4-----------------2----|
    2-|-----3-----3-----3-----3|-----4-----4-----4-----4|
    3-|---4-----4-----4-----4--|---5-----5-----5-----5--|
    4-|-5-----5-----5-----5----|-5-----5-----5----------|
    5-|------------------------|-------3-----------3----|
    6-|-3=============================------------------|
     
    1-|-3-----------3----------|-3---0-----0-1----------|
    2-|-----3-----3------------|-----------------3-----3|
    3-|---4-----4-----3-6---3-6|---2-----2-----2-----2--|
    4-|-5-----5-----5-----5----|-------5-----0-----3----|
    5-|------------------------|-4----------------------|
    6-|-3-----------0----------|------------------------|
     
    1-|------------------------|------------------------|
    2-|-4-----------3----------|------------------------|
    3-|-----3-----3-----4-----4|-------------2-----2----|
    4-|---5-----5-----3-----3--|-7---3-----3-----2-----2|
    5-|-------6-----5-----5----|---5-----5-----5-----4--|
    6-|-3-----------4----------|-5-----5-----5-----5----|
     
    1-|-------------------5----5|-5-------0-----0---5----5|
    2-|-----------------6-----6-|---5-8-----8-----8---5-8-|
    3-|-----------7---7-----7---|-------------------------|
    4-|-----7---7---7-----7-----|-7-----7-----7-----7-----|
    5-|---8---8-----------------|-0-----------------------|
    6-|10-----------------------|-------------------------|
     
    1-|-5-----------------5----|-7---0-----0-----0-7---0|
    2-|-----6-----6-9---------6|------------------------|
    3-|---7-----7-----7-9---7--|---7-----7-----7-----7--|
    4-|-7-----7-----------7----|-6-----6-----6-----6----|
    5-|-5----------------------|------------------------|
    6-|-------------7-----5----|-4-----------------4----|
     
    1-|-8-----------7-----5----|-4----------------------|
    2-|----10----10-0---9-----7|-------5-----6---0-----0|
    3-|---9-----9-----7-----5--|-----4-----4-------7----|
    4-|10----10-----0-----7----|---6-----6-----6-----6--|
    5-|-0-----------------6----|------------------------|
    6-|------------------------|-0----------------------|
     
     
    1-|------------------------|-------5-----8-----5----|
    2-|-----0-----0-----0-----0|-----5-----5-----5-----5|
    3-|------------------------|-5-5-----5-----5-----5--|
    4-|---6-----6-----6-----6--|------------------------|
    5-|-------7-----8-----5----|------------------------|
    6-|-0----------------------|-0----------------------|
     
    1-|------------------------|-------------------1---4|
    2-|-------------1----------|-----------0---3-0---3--|
    3-|-------2-----------2----|-------1-----1----------|
    4-|-----2-----2-----2-----2|---3-0---3--------------|
    5-|-3-3-----3-----3-----3--|-2----------------------|
    6-|-0----------------------|-0----------------------|
     
    1-|-----------0--s5---8-5--|-----------------------2|
    2-|-------1-----1s--5-----5|---------------1---4-1--|
    3-|---2-----2--------------|-----------2-----2------|
    4-|-----2------------------|---1---4-1---4----------|
    5-|-3----------------------|-0---3------------------|
    6-|-0----------------------|-0----------------------|
     
    1-|-------------------4---7|s4---1------------------|
    2-|-------0-----0-6-----6--|---3---0-3---0----------|
    3-|---1-------7-----7------|-----------1-----1------|
    4-|-0---3--s6--------------|---------------3---0-3--|
    5-|------------------------|-----------------------2|
    6-|-0======================|=======================-|
     
    1-|------------------------|------------------------|
    2-|------------------------|------------------------|
    3-|------------------------|------------------------|
    4-|-0---------0-3---0---0-3|-----2-3-2-----0-3---0-3|
    5-|-----2---------2---0----|---5-------5-2-----0----|
    6-|---4---1-4--------------|-4----------------------|
     
    1-|------------------------|------------------------|
    2-|------------------------|------------------------|
    3-|------------------------|-----------------2-----2|
    4-|-----2-3-2-----0-3---0-3|-----2-3-2--------------|
    5-|---5-------5-1-----0----|---5-------5-0h3---0h3--|
    6-|-4----------------------|-4-----------1----------|
     
    1-|------------------------|-------------------0----0|
    2-|------------------------|-----------1-----1-----1-|
    3-|-----2-----2-----1-----1|-2---2---2-----2-----2---|
    4-|-0h3-----3-----2-----2--|---2---2-----2-----2-----|
    5-|-2-----2-----2-----2----|-0-----------------------|
    6-|-------------0----------|-------------------------|
     
     
    1-|-0-----------------0----0|-0-----------1----------|
    2-|-----3-----3-----3-----3-|-----1-----1-----3-----3|
    3-|---4-----4-----4-----4---|---2-----2-----2-----2--|
    4-|-------2-----2-----2-----|-2-----2-----0-----3----|
    5-|-------------------------|-0----------------------|
    6-|-0-----------------------|------------------------|
     
    1-|-0-----------------3----|-------------------3----3|
    2-|-----1-----1-3---0-----0|-----------5-----5-----5-|
    3-|---0-----0-----0-----0--|-5---5---5-----5-----5---|
    4-|-2-----2-----3-----3----|---5---5-----5-----5-----|
    5-|------------------------|-3-----------------------|
    6-|-3-----------3----------|-------------------------|
     
    1-|-3---1-----1-----1-3---1h3|-3---0-----0-4---0-5----|
    2-|---3-----3-----3-----3----|---1-----1-----3-------5|
    3-|-0-----0-----0-----0------|-0-----0-------------5--|
    4-|--------------------------|-------------------7----|
    5-|-2------------------------|-3-----------2-----0----|
    6-|--------------------------|------------------------|
     
    1-|-7---0-----0-8----------|-6-----------4---0-----0|
    2-|-0-----0--------10----10|---3-6---3-6---3-----3--|
    3-|---7-----7-----9-----9--|-3-----3-----1-----1----|
    4-|------------10----10----|-0----------------------|
    5-|-------------0----------|------------------------|
    6-|-4----------------------|-------------0----------|
     
    1-|-5-----------------5----|-6-----------------4---1|
    2-|-----5-----5-----5-----5|-----6-----6-----6---3--|
    3-|---5-----5-----6-----6--|---7-----7-----7---2----|
    4-|-7-----7-----7-----7----|-7-----7-----7-----0----|
    5-|-0======================|======-5-----3----------|
    6-|------------------------|------------------------|
     
    1-|-5-----------------5----|-6-----------------4---1|
    2-|-----5-----5-----5-----5|-----6-----6-----6---3--|
    3-|---6-----6-----6-----6--|---7-----7-----7---2----|
    4-|-7-----7-----7-----7----|-7-----7-----7-----0----|
    5-|-0======================|======-5-----3----------|
    6-|------------------------|------------------------|
     
    1-|-5-----------5----------|-3---1-----1-----1-3---0|
    2-|-----5-----5-----6-----6|---3-----3-----3-----1--|
    3-|---6-----6-----7-----7--|-0-----0-----0----------|
    4-|-7-----7-----7-----7----|------------------------|
    5-|-------------5----------|-2-----------------3----|
    6-|-5----------------------|------------------------|
     
     
    1-|-1---0-1-----------0----|-------------0-----1----|
    2-|---1-----0-3-5---------1|-3---0-----0-----0-----0|
    3-|---------------4-7---2--|---2-----2-----2-----2--|
    4-|-3-----3-----6-----2----|-0-----0-----2-----0----|
    5-|-0-----2-----------0----|------------------------|
    6-|-------------4----------|-1-----------0----------|
     
    1-|-0-----------0----------|-------------------------|
    2-|-----1-----1-----0-----0|-1---------1-----1-----1-|
    3-|---2-----2-----1-----1--|-----2---2-----2-----2---|
    4-|-2-----2-----0-----0----|-2-2---2-----2-----2-----|
    5-|------------------------|-0-----------------------|
    6-|-0-----------0----------|-------------------0----0|
     
    1-|--------------------------|-----------5---8-5-12-8---|
    2-|------3-----3-----3-----3-|-------5-----5---------10-|
    3-|----4-----4-----4-----4---|---5-----5----------------|
    4-|--2-----2-----2-----2-----|-----7--------------------|
    5-|--------------------------|-7------------------------|
    6-|--4-----------------0----0|-5------------------0----0|
     
    1-|---7----------------------|-----------5---8-5-12-8---|
    2-|-9-----9------------------|-------5-----5---------10-|
    3-|----10---7-10---7---------|---5-----5----------------|
    4-|--------------9----s6---0-|-7---7--------------------|
    5-|------------------8---7---|-7------------------------|
    6-|-0------------------0----0|-5------------------0----0|
     
    1-|---7----------------------|------------------------|
    2-|-9-----9------------------|------------------------|
    3-|----10---7-10---7---------|-------5-----------2----|
    4-|--------------9----s6---0-|-7---7---7-------2---2--|
    5-|------------------8---7---|-7-7-------7---3-------3|
    6-|-0------------------0----0|-5-----------5----------|
     
    1-|-------0----------------|-------------5==========|
    2-|-----1---1--------------|-------------5==========|
    3-|---2-------2---2--------|-------------5==========|
    4-|-2-----------2---2---2--|-------------7==========|
    5-|-0-----------------3---3|p0==========-0==========|
    6-|------------------------|------------------------|
     
    1-|------------------------|
    2-|------------------------|
    3-|------------------------|
    4-|-7=======================
    5-|-0=======================
    6-|------------------------|
     

    Тональность:

    Отправитель: Лунатик

    Нет текста!



    Назад
    Рекомендуем посмотреть другие песни исполнителя «Бетховен Людвиг ван»:

    • Комментарии Facebook ()
    • Комментарии ВКонтакте



    Добавить в Избранное Браузера
    Сохранить здесь Очистить


    x

    0


    +
    -

    +
    -

    -

    Авторизация





    Зарегистрироваться

    M

    Дата и время

    • 19:46:57
       

    Социальные ссылки


    Наши приложения

    • Muzbank App Play Market
    • Muzbank Amazon App