MUZBANK



A Most Complete Bank Of Music Information

МУЗЫКАЛЬНО-ИНФОРМАЦИОННЫЙ БАНК

Поиск по сайту







    ББи-2 • Как песок сквозь пальцы (аккорды и текст - chords & lyrics)


    543

    Print

    Видео «Как песок сквозь пальцы (Би-2)»

    Видео клипы к песне подбираются автоматически сайтом youtube. Возможны некоторые несоответствия клипов песне.

    ↑ Спрятать рекламу ↑



    Download



    Эти табуляторы играются в самом начале песни.
    E|----1-----|----2------|-----2-------|-----0-1---------|
    B|------3---|------3----|-------3-----|---3-----3-------| 2раза
    G|-4------4-|-2------2--|-0-------0---|-3---------3-----|
    
    Мы  ждем  новостей  в условный день и час
    Как ручей прольется кровь из
    Глаз  не спускать не тушить огни их рана
    Сердце раздавит на дне океана
    
    Эти табуляторы играются во время припева.
    E|---------------|---------------|---------------|-------------|
    B|---------------|---------------|---------------|-------------|
    G|---------------|---------------|---------------|-------------|
    D|9-9-9-9-9-9-9-9|7-7-7-7-7-7-7-7|5-5-5-5-5-5-5-5|8-8-8-8-8-8-8|
    A|9-9-9-9-9-9-9-9|7-7-7-7-7-7-7-7|5-5-5-5-5-5-5-5|8-8-8-8-8-8-8|
    E|7-7-7-7-7-7-7-7|5-5-5-5-5-5-5-5|3-3-3-3-3-3-3-3|6-6-6-6-6-6-6|
        Уууууууууууууууууууууууууууу      Как   песок сквозь пальцы
    
    E|---------------|---------------|---------------|-------------|
    B|---------------|---------------|---------------|-------------|
    G|---------------|---------------|---------------|-------------|
    D|9-9-9-9-9-9-9-9|7-7-7-7-7-7-7-7|5-5-5-5-5-5-5-5|8-8-8-8-8-8-8|
    A|9-9-9-9-9-9-9-9|7-7-7-7-7-7-7-7|5-5-5-5-5-5-5-5|8-8-8-8-8-8-8|
    E|7-7-7-7-7-7-7-7|5-5-5-5-5-5-5-5|3-3-3-3-3-3-3-3|6-6-6-6-6-6-6|
       Уууууууууууууууууууууууууууууу      Что же     будет  дальше
    
    E|---------------|---------------|---------------|-------------|
    B|---------------|---------------|---------------|-------------|
    G|---------------|---------------|---------------|-------------|
    D|9-9-9-9-9-9-9-9|7-7-7-7-7-7-7-7|5-5-5-5-5-5-5-5|8-8-8-8-8-8-8|
    A|9-9-9-9-9-9-9-9|7-7-7-7-7-7-7-7|5-5-5-5-5-5-5-5|8-8-8-8-8-8-8|
    E|7-7-7-7-7-7-7-7|5-5-5-5-5-5-5-5|3-3-3-3-3-3-3-3|6-6-6-6-6-6-6|
       Ууууууууууууууууууууууууууууууу       Слов    немая    стая
    
    E|---------------|---------------|---------------|-------------|
    B|---------------|---------------|---------------|-------------|
    G|---------------|---------------|---------------|-------------|
    D|9-9-9-9-9-9-9-9|7-7-7-7-7-7-7-7|5-5-5-5-5-5-5-5|8-8-8-8-8-8-8|
    A|9-9-9-9-9-9-9-9|7-7-7-7-7-7-7-7|5-5-5-5-5-5-5-5|8-8-8-8-8-8-8|
    E|7-7-7-7-7-7-7-7|5-5-5-5-5-5-5-5|3-3-3-3-3-3-3-3|6-6-6-6-6-6-6|
       Ууууууууууууууууууууууууууууууу       Просто     исчезает
    
    Ждать перемен в удобный случай нам
    Выбор Бок Мэн иди и слушай
    Как тонет сердце на дне чужих историй
    Падает с неба  звезда и гаснет море
    
    Уууууууууууууу  Как песок сквозь пальцы
    Уууууууууууууу  Что же будет дальше
    Уууууууууууууу   Слов немая стая
    Уууууууууууууу   Просто исчезает
    
    Гитара 1
    E|---------------|---------------|---------------|-------------|
    B|---------------|---------------|---------------|-------------|
    G|---------------|---------------|---------------|-------------|
    D|9-9-9-9-9-9-9-9|7-7-7-7-7-7-7-7|5-5-5-5-5-5-5-5|8-8-8-8-8-8-8|
    A|9-9-9-9-9-9-9-9|7-7-7-7-7-7-7-7|5-5-5-5-5-5-5-5|8-8-8-8-8-8-8|
    E|7-7-7-7-7-7-7-7|5-5-5-5-5-5-5-5|3-3-3-3-3-3-3-3|6-6-6-6-6-6-6|
    
    Гитара 2
    E|----1----------|------2--------|-----2---------|-----0-1-----|
    B|--------3------|---------3-----|--------3------|---3-----3---|
    G|-4-----------4-|-2----------2--|-0---------0---|-3---------3-|
    
    Уууууууууууууу  Как песок сквозь пальцы
    Уууууууууууууу  Что же будет дальше
    Уууууууууууууу   Слов немая стая
    Уууууууууууууу   Просто исчезает
    
    И в конце те же табуляторы что и в начале
    E|----1-----|----2------|-----2-------|-----0-1---------|
    B|------3---|------3----|-------3-----|---3-----3-------| 2раза
    G|-4------4-|-2------2--|-0-------0---|-3---------3-----|
    

    Тональность:

    Нет текста!



    Назад
    Рекомендуем посмотреть другие песни исполнителя «Би-2»:

    • Комментарии Facebook ()
    • Комментарии ВКонтакте



    Добавить в Избранное Браузера
    Сохранить здесь Очистить


    x

    0


    +
    -

    +
    -

    -

    Авторизация





    Зарегистрироваться

    M

    Дата и время

    • 22:20:54
       

    Социальные ссылки


    Наши приложения

    • Muzbank App Play Market
    • Muzbank Amazon App