MUZBANK



A Most Complete Bank Of Music Information

МУЗЫКАЛЬНО-ИНФОРМАЦИОННЫЙ БАНК

Поиск по сайту







    ББи-2 • Последний герой (аккорды и текст - chords & lyrics)


    252

    Print

    Видео «Последний герой (Би-2)»

    Видео клипы к песне подбираются автоматически сайтом youtube. Возможны некоторые несоответствия клипов песне.

    ↑ Спрятать рекламу ↑



    Download



    F#m
    я больше не играю сам своей душой
    Hm
    какая есть, кому-нибудь сгодится
      F#m
    но медь - не золото, и твой герой - 
    Hm
    последний кем бы ты могла гордиться
    
    F#m
    остаться в живых,
    F#m
    отчаянный псих
                   Hm
    не свой, не чужой,
                  Hm
    последний герой
    
    проигрыш:
    F#  G  (играется на басовых струнах)
    
    все то немногое, на четное не ставь
    когда любовь и слезы не дороже хлеба.
    и кажется что до земли добраться вплавь
    возможно тем, кто по воде уходит в небо.
    
    остаться в живых,
    отчаянный псих
    не свой, не чужой,
    последний герой.
    
    F#m
    1.------2-2----------2-2-----------2-2-------2-----
    2.-------------------------------------------------
    3.------------1-1-----------2-2----------2--------2  - 2 р.
    4.--4-4--------------------------------------------
    
    Hm
    1.--------2-2-------2-2-------2-2----2-2-----------
    2.-------------2-2-------3-3-------3---------------  - 2 р.
    3.----4-4------------------------------------------
    
    припев:
    f#m
    1.----2------2---2---1---1----1---0----0--0--------  - 2 р.
    2.-------2-------------2---------------2-----4-3-2-
    hm
    1.--7-----7-7-6----6-6-5-----5---5-----------------
    2.------7-----------7-----------7------9-8-7-------  - 2 р.

    Тональность:

    Нет текста!



    Назад
    Рекомендуем посмотреть другие песни исполнителя «Би-2»:

    • Комментарии Facebook ()
    • Комментарии ВКонтакте



    Добавить в Избранное Браузера
    Сохранить здесь Очистить


    x

    0


    +
    -

    +
    -

    -

    Авторизация





    Зарегистрироваться

    M

    Дата и время

    • 06:02:02
       

    Социальные ссылки


    Наши приложения

    • Muzbank App Play Market
    • Muzbank Amazon App