MUZBANK



A Most Complete Bank Of Music Information

МУЗЫКАЛЬНО-ИНФОРМАЦИОННЫЙ БАНК

Поиск по сайту







    ББи-2 • Сердце (аккорды и текст - chords & lyrics)


    509

    Print

    Видео «Сердце (Би-2)»

    Видео клипы к песне подбираются автоматически сайтом youtube. Возможны некоторые несоответствия клипов песне.

    ↑ Спрятать рекламу ↑



    Download



    Solo:
    1|---------------------------------5-5-----7-7----------|
    2|-6-6-5-5---------6-6-5-5------------------------------|
    3|---------7-7-5-5---------7-7-5-5-----5-5-----5-5-7-9--|
    4|------------------------------------------------------|
    5|------------------------------------------------------|
    6|------------------------------------------------------|
    
    1|-5-8-----10-7-8-5-5-8------10-7-8-5-5-7-10-12---------|
    2|-----6-5--------------6-5---------------------6-5-----|
    3|------------------------------------------------------|
    4|------------------------------------------------------|
    5|------------------------------------------------------|
    6|------------------------------------------------------|
    
    Intro:    Am     F    C    C/H  Am
    
              Am   F
    Из всех причин
              Am   F
    Одна причина
              G
    Что ты ушла
    F             Am     F
    С другим мужчиной
            Am      F
    И где покой
            Am      F
    Невозмутимо
           G      F
    Чужой женой
               Am
    Проходишь мимо
    
    Bridge.
    
    C    Dm     Am
    И где же они
    Dm       G
    Чары любви
        F
    Зачем
    
    Припев:
             Am                Am/C    Am    Am/C    Am
       Ты разбиваешь мое сердце
             G               F
       Мы никогда не будем вместе
    
    Figure/Coda:   Am  G  F - 2 раза
    
    К чему стихи
    Я погибаю
    И ничего
    Не понимаю
    Хороших нет
    Воспоминаний
    Таков сюжет
    Моих страданий
    
    Bridge.
    
    Припев.
    
    
    
    ТАБЫ: 
    
    Вступление:
    
    E||--------------------------|-----------------------|
    B||--------------------------|-----------------------|
    G||--------------------------|------------------5----|
    D||--------------------------|--2--3----2--3---------|
    A||--------7-----------7-----|-----------------------|
    E||--5--5--5--5--5--5--5--5--|-----------------------|
    
    --------------------------|------------------------|--------------------|
    --------------------------|------------------------|--------------------|
    --------------------------|------------------------|--------------------|
    --------------------------|------------------------|--------------------|
    --------7-----------7-----|--3--3--3--2----0--2----|--0-----------------|
    --5--5--5--5--5--5--5--5--|------------------------|--------------------|
    
    
    
    
    Соло:
    
    ----------------------|----------------------|----------------------|
    -------------------6--|--6------5--5---------|-------------------6--|
    ----------------------|-------------------7--|--7------5--5---------|
    ----------------------|----------------------|----------------------|
    ----------------------|----------------------|----------------------|
    ----------------------|----------------------|----------------------|
    
    ----------------------|-------------------5--|--5----------------7--|
    --6------5--5---------|----------------------|----------------------|
    -------------------7--|--7------5--5---------|---------5--5---------|
    ----------------------|----------------------|----------------------|
    ----------------------|----------------------|----------------------|
    ----------------------|----------------------|----------------------|
    
    --7----------------------|---------------------|------------------5--|
    -------------------------|---------------------|---------------------|
    ---------7--7------7S-9--|--L------------------|---------------------|
    -------------------------|---------------------|---------------------|
    -------------------------|---------------------|---------------------|
    -------------------------|---------------------|---------------------|
    
    --8----------------7S-10-|--7------8--5------5--|--8----------------7S-10-|
    ---------6--5------------|----------------------|---------6--5------------|
    -------------------------|----------------------|-------------------------|
    -------------------------|----------------------|-------------------------|
    -------------------------|----------------------|-------------------------|
    -------------------------|----------------------|-------------------------|
    
    --7------8--5------5--|--7---------L----10----|--12----------------------|
    ----------------------|-----------------------|------------------5S-6----|
    ----------------------|-----------------------|--------------------------|
    ----------------------|-----------------------|--------------------------|
    ----------------------|-----------------------|--------------------------|
    ----------------------|-----------------------|--------------------------|
    
    
    Припев:
    
    --------------------------|--------------------------|
    --------------------------|--------------------------|
    --------------------------|--------------------------|
    --------7-----------7-----|--------7-----------7-----|
    --7--7--7--7--7--7--7--7--|--7--7--7--7--7--7--7--7--|
    --5--5--5--5--5--5--5--5--|--5--5--5--5--5--5--5--5--|
    
      
    --------------------------|--------------------------|
    --------------------------|--------------------------|
    --------------------------|--------------------------|
    --7-----------7-----------|--7-----------------7-----|
    --7--7--7--7--7--7--7--7--|--7--7--7--7--7--7--7--7--|
    --8--5--5--5--8--5--5--5--|--8--5--5--5--5--5--5--5--|
    
                 
    --------------------------|---------------------------||
    --------------------------|---------------------------||
    --------------------------|---------------------------||
    --------5-----------5-----|--------3----------------3-||
    --5--5--5--5--5--5--5--5--|--3--3--3--3--3--3/-13---3-||
    --3--3--3--3--3--3--3--3--|--1--1--1--1--1--1/-11---1-||
    
    
    Куплеты (2 гитара):
    --------------------------|--1--------1--------1-----|
    --5--------5--------5-----|-----1--------1--------1--|
    -----5--------5--------5--|--------2--------2--------|
    --------7--------7--------|--------------------------|
    --------------------------|--------------------------|
    --------------------------|--------------------------|
    
    --------------------------|--1--------1--------1-----|
    --5--------5--------5-----|-----1--------1--------1--|
    -----5--------5--------5--|--------2--------2--------|
    --------7--------7--------|--------------------------|
    --------------------------|--------------------------|
    --------------------------|--------------------------|
    
    --------------------------|--1--------1--------1-----|
    --3--------3--------3-----|-----1--------1--------1--|
    -----4--------4--------4--|--------2--------2--------|
    --------5--------5--------|--------------------------|
    --------------------------|--------------------------|
    --------------------------|--------------------------|
    
    --------------------------|------------------------|----------------------|
    --5--------5--------5-----|------------------------|-----------5----------|
    -----5--------5--------5--|------------------------|--5-----------5-------|
    --------7--------7--------|--2--3----2--3----2--3--|-----------------7----|
    --------------------------|------------------------|----------------------|
    --------------------------|------------------------|----------------------|
    
    ------------------------|----------------------|-----------------------|
    ------------------------|-----------5----------|-----------------------|
    ------------------------|--5-----------5-------|-----------------------|
    --2--3----2--3----2--3--|-----------------7----|--2--3----2--3----0----|
    ------------------------|----------------------|-----------------------|
    ------------------------|----------------------|-----------------------|
    
    ----------------------|------------------------|------------------------|
    ----------------------|------------------------|-----------5------------|
    ----------------------|------------------------|--5-----------5---------|
    ----------------------|--2--3----2--3----2--3--|-----------------7----7-|
    --3------0--0----3----|------------------------|------------------------|
    ----------------------|------------------------|------------------------|
    
    Бридж:
    |--0--------0--------0-----|--1--------1--------1-----|
    |-----1--------1--------1--|-----3--------3--------3--|
    |--------0--------0--------|--------2--------2--------|
    |--------------------------|--------------------------|
    |--------------------------|--------------------------|
    |--------------------------|--------------------------|
    
    --0--------0--------0-----|--1--------1--------1-----|
    -----1--------1--------1--|-----3--------3--------3--|
    --------2--------2--------|--------2--------2--------|
    --------------------------|--------------------------|
    --------------------------|--------------------------|
    --------------------------|--------------------------|
                                                            ^             
    --3--------3--------3-----|--1--------1--------1-----|----------|
    -----0--------0--------0--|-----1--------1--------1--|--1-------|
    --------0--------0--------|--------2--------2--------|--2-------|
    --------------------------|--------------------------|--3-------|
    --------------------------|--------------------------|--3-------|
    --------------------------|--------------------------|----------|
    

    Тональность:

    Нет текста!



    Назад
    Рекомендуем посмотреть другие песни исполнителя «Би-2»:

    • Комментарии Facebook ()
    • Комментарии ВКонтакте



    Добавить в Избранное Браузера
    Сохранить здесь Очистить


    x

    0


    +
    -

    +
    -

    -

    Авторизация





    Зарегистрироваться

    M

    Дата и время

    • 13:58:08
       

    Социальные ссылки


    Наши приложения

    • Muzbank App Play Market
    • Muzbank Amazon App