MUZBANK



A Most Complete Bank Of Music Information

МУЗЫКАЛЬНО-ИНФОРМАЦИОННЫЙ БАНК

Поиск по сайту







    ББи-2 • Волки (аккорды и текст - chords & lyrics)


    264

    Print

    Видео «Волки (Би-2)»

    Видео клипы к песне подбираются автоматически сайтом youtube. Возможны некоторые несоответствия клипов песне.

    ↑ Спрятать рекламу ↑



    Download



            Hm(VII) 
    Волки уходят в небеса
            F#
    Горят холодные глаза
              G
    Приказа верить в чудеса
               F#
    Не поступало
                Hm
    И каждый день другая цель
               F#
    То стены гор то горы стен
               G
    И ждет отчаянных гостей
            F#
    Чужая стая
    
    Припев:
        Hm            Db
    Спиной к ветру и все же
                 Em
    Вырваться может
               F#
    Чья-то душа
         Hm          Db
    Спасет но не поможет
                Em
    Чувствую кожей
            F#
    Пропащая
    
    Не видят снов не помнят слов
    Переросли своих отцов
    И кажется рука бойцов
    Колоть устала
    Позор и слава в их крови
    Хватает смерти и любви
    Но сколько волка не корми
    Ему все мало
    
    Соло:
        Hm     F#    G        F#
    1|-------|-------|-----------------|-------|-------|----------|
    2|-------|-------|-----------------|-------|-------|----------|
    3|-------|-------|-----------------|-------|-------|----------|
    4|-5-4---|-5-4---|-5--4-5----------|-5-4---|-5-4---|-5--5-5-4-|
    5|-----2-|-----1-|---------5-4-----|-----2-|-----2-|----------|
    6|-------|-------|-------------6-2-|-------|-------|----------|
    
    1|-------|-------|-------------------|-------|-------|--------------|
    2|-------|-------|-------------------|-------|-------|--------------|
    3|-------|-------|-------------------|-------|-------|---4-6-7--9---|
    4|-5-4---|-5-4---|-5--4-5----------4-|-5-4---|-5-4---|-4----------8-|
    5|-----2-|-----1-|---------5-4-------|-----2-|-----2-|--------------|
    6|-------|-------|-------------6-2---|-------|-------|--------------|

    Тональность:

    Нет текста!



    Назад
    Рекомендуем посмотреть другие песни исполнителя «Би-2»:

    • Комментарии Facebook ()
    • Комментарии ВКонтакте



    Добавить в Избранное Браузера
    Сохранить здесь Очистить


    x

    0


    +
    -

    +
    -

    -

    Авторизация





    Зарегистрироваться

    M

    Дата и время

    • 01:27:26
       

    Социальные ссылки


    Наши приложения

    • Muzbank App Play Market
    • Muzbank Amazon App