MUZBANK



A Most Complete Bank Of Music Information

МУЗЫКАЛЬНО-ИНФОРМАЦИОННЫЙ БАНК

Поиск по сайту







    BBif Naked • I Love Myself Today (аккорды и текст - chords & lyrics)


    257

    Print

    Видео «I Love Myself Today (Bif Naked)»

    Видео клипы к песне подбираются автоматически сайтом youtube. Возможны некоторые несоответствия клипов песне.

    ↑ Спрятать рекламу ↑



    Download



     
    
    
    this is my first tab so go easy on me..hehe !*! =p
    
    Intro (10x)  up & down stroke on the 2*!
    G----------------------------------|
    D----------------------------------|
    A-----------------------------5----|
    E-2-2-0-2-0-2*-5---2-2-0-2-0-2*----|
    
    Verse 1
    (2x)              (1X)
    G---------------|------------------------------|
    D-----2---2-----|------2-----2-----------------|
    A-4-4---4-------|--4-4---4-4---4-4-3-3-2-2-0-0-|
    E-----------3---|------------------------------|
    
    Chorus (3x Hold notes)
    G---------|
    D---------|
    A---0---2-|
    E-2---0---|
    
    G-----------------------------------------------------|
    D-2-2-2-2-2-2-2---------------------------------------|
    A---------------0-2-2-0-2-0-5-5-5-5-5-5-4-0-0-2-0-2-0-|
    E-----------------------------------------------------|
    BACK TO INTRO (5x) Then Verse 1 & chorus
    
    @2:09min       VERSE 2 (u only play this once)
    G---------------------------------------------------|
    D---------------------------------------------------|
    A-9-9-9-9-9-9-9-9--7-9-9-9-9-9-9-9--7-9-9-9-9-9-9-9-|
    E---------------------------------------------------|
    
    G-------------------9----9-11-|
    D----------7-9-9-11---11------|
    A-7-9-9-9---------------------|
    E-----------------------------|
    
    Go To Verse 1 & Go through Chorus (2x)
    
    Start to do Intro (3x) & at the very end add this DO FAST!
    G-------------------------|
    D-------------------------|
    A-5-4-0-5-4-0-5-4-0-5-4-0-|
    E-------------------------|
    
    & ur done =)  Any comments or questions e-mail me! Please point out for me if ya think sumthins 
    wrong.. ..im_such_a_kinky_babe@hotmail.com   & THANKS!*!
     

    Тональность:

    Нет текста!



    Назад
    Рекомендуем посмотреть другие песни исполнителя «Bif Naked»:

    • Комментарии Facebook ()
    • Комментарии ВКонтакте



    Добавить в Избранное Браузера
    Сохранить здесь Очистить


    x

    0


    +
    -

    +
    -

    -

    Авторизация





    Зарегистрироваться

    M

    Дата и время

    • 15:24:33
       

    Социальные ссылки


    Наши приложения

    • Muzbank App Play Market
    • Muzbank Amazon App