MUZBANK



A Most Complete Bank Of Music Information

МУЗЫКАЛЬНО-ИНФОРМАЦИОННЫЙ БАНК

Поиск по сайту







    BBiffy Clyro • Solution Devices (аккорды и текст - chords & lyrics)


    245

    Print

    Видео «Solution Devices (Biffy Clyro)»

    Видео клипы к песне подбираются автоматически сайтом youtube. Возможны некоторые несоответствия клипов песне.

    ↑ Спрятать рекламу ↑



    Download


     
    
    
    ---------------------------------------------------------------------
    		     Biffy Clyro= Solution Devices
    ---------------------------------------------------------------------
    Its in Drop D by the way...
    Lots of people have been asknig me to tab this one so i thought wat the hell
    may as well.so here it is.may be wrong in slight places.couldnt b bothered with
    sum of the rhythmn.u can probably ges!
    Have fun(tombuttcrunch116@hotmail.com)
    
    ------------------------------------------
    ------------------------------------------
    ---x---x-10---x-10-10--x-10-10-10--5-5-5--
    ---x---x------x--------x------------------
    ---x---x-8----x-8--8---x-8--8--8---3-3-3--
    ------------------------------------------
    
    -----------        -----------
    -----------        -----------
    ---7-7-4-4-        ---7-7-4-4-
    -----------  then  ---------5-
    ---5-5-2-2-        ---5-5-2-3-
    -----------        -----------
    
    dist bit(riff1)
    ---------------------
    ---------------------
    -----4/10--4h5-------
    ---2-------5----3----
    ---2-2/8---3----3----
    ---2------------3----
    
    -----------
    -----------
    ---7-7-4-4-
    -----------
    ---5-5-2-2-
    -----------
    
    ----------------------------------------------
    --------3--0---------0---------0--------------
    -----4----------2p0-----------0----------0----
    ---2----------0------------0---------2p0------
    ------------------------3----------0----------
    ----------------------------------------------
    
    -----------------
    -----------------
    ---7p0-7p0-11/4--
    -----------------
    -----------------
    -----------------
    
    (riff1)
    
    ---------------------------------
    ---------------------------------
    ------------101010105-----------
    ---2-2-0h2--------------0--0-0---
    ---2-2-0h2--8-8-8-8-3--0--0-0---
    ---2-2-0h2--------------0--0-0---
    
    ---------------------------------------------------
    ---------------------------------------------------
    --------------------11-11-11-11-11h12-12-11h12-12--
    ---2-2-0h2--0-5--0--0--0--0--0--0-----0--0-----0---
    ---2-2-0h2--0-5--0--0--0--0--0--0-----0--0-----0---
    ---2-2-0h2--0-5--0--0--0--0--0--0-----0--0-----0---
    
    ---------------------------------
    ---------------------------------
    ------------101010105-----------
    ---2-2-0h2--------------0--0-0---
    ---2-2-0h2--8-8-8-8-3--0--0-0---
    ---2-2-0h2--------------0--0-0---
    
    ---------------------------------------------------
    ---------------------------------------------------
    --------------------11-11-11-11-11h12-12-11h12-12--
    ---2-2-0h2--0-5--0--0--0--0--0--0-----0--0-----0---
    ---2-2-0h2--0-5--0--0--0--0--0--0-----0--0-----0---
    ---2-2-0h2--0-5--0--0--0--0--0--0-----0--0-----0---
    
    
    -----------------
    -----------------
    ------------5----
    ---5--2--0--5----
    ---5--2--0--3----
    ---5--2--0-------
    
    -------------------------
    -------------------------
    ---------11--9-7--4-2-2--
    ---5--2--0---------------
    ---5--2--0---7-5--2-0-0--
    ---5--2--0---------------
    
    ------------||-----------------||
    ------------||-----------------||
    ---------11-||0-9-7--4--12-12-0||
    ---5--2--0--||-----------------||
    ---5--2--0--||0-7-5--2--10-10-0||
    ---5--2--0--||-----------------||
    
    ------------
    ------------
    ------------
    ---2-0-9-5--
    ---2-0-9-5--
    ---2-0-9-5--x4
    
    ------------------
    ------------------
    ---9-7--4--12-12--
    ------------------
    ---7-5--2--10-10--x2 hold out last chord
    ------------------
    
    ----------------------------||
    ----------------------------||
    ----------------------------||
    ---0--0---------0000-0000---||
    ---0--0---------0000-0000---||
    ---0--0---------0000-0000---||
     

    Тональность:

    Нет текста!



    Назад
    Рекомендуем посмотреть другие песни исполнителя «Biffy Clyro»:

    • Комментарии Facebook ()
    • Комментарии ВКонтакте



    Добавить в Избранное Браузера
    Сохранить здесь Очистить


    x

    0


    +
    -

    +
    -

    -

    Авторизация





    Зарегистрироваться

    M

    Дата и время

    • 22:59:08
       

    Социальные ссылки


    Наши приложения

    • Muzbank App Play Market
    • Muzbank Amazon App