MUZBANK



A Most Complete Bank Of Music Information

МУЗЫКАЛЬНО-ИНФОРМАЦИОННЫЙ БАНК

Поиск по сайту







    BBiffy Clyro • With Aplomb (аккорды и текст - chords & lyrics)


    296

    Print

    Видео «With Aplomb (Biffy Clyro)»

    Видео клипы к песне подбираются автоматически сайтом youtube. Возможны некоторые несоответствия клипов песне.

    ↑ Спрятать рекламу ↑



    Download


     
    
    
    Artist: Biffy Clyro
    Track: With Aplomb
    Album: The Vertigo Of Bliss
    Tuning: Drop D (d a d g b e)
    
    e--9--12--10--7--10----9-
    b-10--14--12--8--12---10-
    g------------------------
    d------------------------
    a------------------------
    d------------------------
    
    e--9--12--10--9--7-/-14---9--
    b-10--14--12-10--8-/-15--10--
    g----------------------------
    d----------------------------
    a----------------------------
    d----------------------------
    
    
    e-----------------------
    b-----------------------
    g--6-6h7-7-6-7-6-2-2h4-2
    d-----------------------
    a-----------------------
    d-----------------------
    
    e---------------------------------------
    b---------------------------------------
    g--6-7-6--2-4-2-/-6-7-6--2-4-2-/-6-7-6
    d---------------------------------------
    a---------------------------------------
    d---------------------------------------
    
    e-----------------------
    b-----------------------
    g--7-7-7----------------
    d--7-7-7--12-12--12---
    a--5-4-5--10--9--12---
    d------5---------12---
    
    e---------------------------------------------------------------------------
    b---------------------------------------------------------------------------
    g-6-6-6h7-7-6-7-6--2-4-2-/-6-7-6--2-4-2-/-6-7-6-/-14-16-14--6-7-6--2-4-2
    d---------------------------------------------------------------------------
    a---------------------------------------------------------------------------
    d---------------------------------------------------------------------------
    
    
    
    
    Violin plays main part here
    e-5------
    b-6------
    g-7------
    d-7------
    a-5------
    d-0------   just repeat over until end of violin
    
    e----------------------
    b-----10---------8-8---
    g--------10-7/9--9-9---
    d---0------------------
    a----------------------
    d----------------------
    
    
    
    e---------
    b-8-------
    g--9------
    d---10----
    a-----0---
    d--------- (all in one slow upstroke)
    
    
    e-------------
    b-8h10-8------
    g--------9h10-
    d-------------
    a-------------
    d-------------
    
    e----------------------
    b-----10---------8-8---
    g--------10-7/9--9-9---
    d---0------------------
    a----------------------
    d----------------------
    
    e---------
    b-8-------
    g--9------
    d---10----
    a-----0---
    d--------- (all in one slow upstroke)
    
    e--------------------------------
    b----------------------6-6-6-6---
    g-10-10-10-12-10-9-10--7-7-7-7---
    d-10-10-10-------------7-7-7-7---
    a-8--8--8--------------5-5-5-5---
    d--------------------------------
    
    e-------------------------------------------------
    b-------------------------------------------------
    g-12-12-12-12-12-12-12-12-14-14-14-14-14-14-14-14-
    d-12-12-12-12-12-12-12-12-14-14-14-14-14-14-14-14-
    a-10-10-10-10-10-10-10-10-12-12-12-12-12-12-12-12-
    d-------------------------------------------------
    
    e-----------------------
    b------------------6----
    g-10-10-10-10-10---7----
    d-10-10-10-10-10---7----
    a-8--8--8--8--8----5----
    d-----------------------
    
    
    e--------------------------------
    b----------------------6-6-6-6---
    g-10-10-10-12-10-9-10--7-7-7-7---
    d-10-10-10-------------7-7-7-7---
    a-8--8--8--------------5-5-5-5---
    d--------------------------------
    
    e-------------------------------------------------
    b-------------------------------------------------
    g-12-12-12-12-12-12-12-12-14-14-14-14-14-14-14-14-
    d-12-12-12-12-12-12-12-12-14-14-14-14-14-14-14-14-
    a-10-10-10-10-10-10-10-10-12-12-12-12-12-12-12-12-
    d-------------------------------------------------
    
    e-----------------------
    b------------------6----
    g-10-10-10-10-10---7----
    d-10-10-10-10-10---7----
    a-8--8--8--8--8----5----
    d-----------------------
    
    e---------------------------
    b---------------------------
    g-12-10-9-10-10-10-10-10-10-
    d------------10-10-10-10-10-
    a------------8--8--8--8--8--
    d---------------------------
    
    Bass, tabbed out for guitar
    
    e------8----
    b-----------
    g-9-10---10-
    d-----------
    a-----------
    d-----------
    
    
    e------------------
    b--6-6-6-6-6-------
    g--7-7-7-7-7-------
    d--7-7-7-7-7-------
    a--5-5-5-5-5-------
    d------------------
    
    e-------------------------------------------------
    b-------------------------------------------------
    g-12-12-12-12-12-12-12-12-14-14-14-14-14-14-14-14-
    d--x--x--x--x--x--x--x--x--x--x--x--x--x--x--x--x-
    a-10-10-10-10-10-10-10-10-12-12-12-12-12-12-12-12-
    d-------------------------------------------------
    
    e-----------------------
    b------------------6----
    g-10-10-10-10-10---7----
    d-10-10-10-10-10---7----
    a-8--8--8--8--8----5----
    d-----------------------
    
    e---------------------------
    b---------------------------
    g-12-10-9-10-10-10-10-10-10-
    d------------10-10-10-10-10-
    a------------8--8--8--8--8--
    d---------------------------
    
    Bass, tabbed out for guitar
    
    e------8----
    b-----------
    g-9-10---10-
    d-----------
    a-----------
    d-----------
    
    e-----------------
    b-6-6-6-6-6-------
    g-7-7-7-7-7-------
    d-7-7-7-7-7-------
    a-5-5-5-5-5-------
    d-----------------
    
    e-------------------------------------------------
    b-------------------------------------------------
    g-12-12-12-12-12-12-12-12-14-14-14-14-14-14-14-14-
    d--x--x--x--x--x--x--x--x--x--x--x--x--x--x--x--x-
    a-10-10-10-10-10-10-10-10-12-12-12-12-12-12-12-12-
    d-------------------------------------------------
    
    e-----------------------
    b------------------6----
    g-10-10-10-10-10---7----
    d-10-10-10-10-10---7----
    a-8--8--8--8--8----5----
    d-----------------------
    
    e-----------------------
    b-----------------------
    g-15-15-15-15-15-17--10-
    d-15-15-15-15-15-17--10-
    a-13-13-13-13-13-15--8--
    d-----------------------
    
    e-----------------------
    b-----------------------
    g-15-15-15-15-15-17--10-
    d-15-15-15-15-15-17--10-
    a-13-13-13-13-13-15--8--
    d-----------------------
    
    e-----------------------
    b-----------------------
    g-15-15-15-15-15-17--10-
    d-15-15-15-15-15-17--10-
    a-13-13-13-13-13-15--8--
    d-----------------------
    
    e-----------------------
    b-----------------------
    g-15-15-15-15-15-17--10-
    d-15-15-15-15-15-17--10-
    a-13-13-13-13-13-15--8--
    d-----------------------
    
    e----------------------
    b----------------------
    g----15----------17-10-
    d-------15----------10-
    a-13-------13/15----8-- repeat till end
    d----------------------
    
    
    e-1-------------------- end on....
    b-3--------------------
    g-2--------------------
    d-0--------------------
    a----------------------
    d----------------------
    
    cheers, MON THE BIFFY
     

    Тональность:

    Нет текста!



    Назад
    Рекомендуем посмотреть другие песни исполнителя «Biffy Clyro»:

    • Комментарии Facebook ()
    • Комментарии ВКонтакте



    Добавить в Избранное Браузера
    Сохранить здесь Очистить


    x

    0


    +
    -

    +
    -

    -

    Авторизация





    Зарегистрироваться

    M

    Дата и время

    • 03:23:50
       

    Социальные ссылки


    Наши приложения

    • Muzbank App Play Market
    • Muzbank Amazon App