MUZBANK



A Most Complete Bank Of Music Information

МУЗЫКАЛЬНО-ИНФОРМАЦИОННЫЙ БАНК

Поиск по сайту







    BBilly Talent • River Below (аккорды и текст - chords & lyrics)


    210

    Print

    Видео «River Below (Billy Talent)»

    Видео клипы к песне подбираются автоматически сайтом youtube. Возможны некоторые несоответствия клипов песне.

    ↑ Спрятать рекламу ↑



    Download



     
    
    
    ---------------------------------------------------------------------------
    			     River Below - Billy Talent
    ---------------------------------------------------------------------------
    I saw them live this is how i think he plays it exellent band to see live 
    I didnt work out the struming but its not hard u can figure it out
    Please rate and correct and ill fix anything thats wrong
    Tuning: Drop D
    
    Intro
    e|-------------------------|
    B|-------------------------|
    G|----8-5-7-8-7------------|
    D|-5------------8-7--------| x2
    A|------------------8-7----|
    E|-------------------------|
    
    Verse
    e|----------|
    B|----------|
    G|----77-55-|
    D|-55-77-55-|
    A|-55-55-33-|
    E|-33-------|
    
    This part sounds right form the other tab
    Pre chorus
    e|-----------------------------2----------------------2~-------|
    B|-------------4-------------1--------------4---------1~-------|
    G|------5----3--------3----2--------5-----3-------3---2~-------|
    D|----5----1--------3-------------5-----1-------3--------------|
    A|--3-------------1-------------3-------------1----------------|
    E|-------------------------------------------------------------|
                                                          let ring
    Chorus
    e|-------------|--------------|
    B|-------------|--------------|
    G|------55-33--|-55------44---|
    D|-55-7-55-33--|-55-55-7-44---| x4
    A|-55-7-33-11--|-33-55-7-22---|
    E|-35-6--------|----33-6------|
    
    
    | /  slide up
    |   slide down
    | h  hammer-on
    | p  pull-off
    | ~  vibrato
    | +  harmonic
    | x  Mute note
    ============================================================================
     

    Тональность:

    Нет текста!



    Назад
    Рекомендуем посмотреть другие песни исполнителя «Billy Talent»:

    • Комментарии Facebook ()
    • Комментарии ВКонтакте



    Добавить в Избранное Браузера
    Сохранить здесь Очистить


    x

    0


    +
    -

    +
    -

    -

    Авторизация





    Зарегистрироваться

    M

    Дата и время

    • 17:23:04
       

    Социальные ссылки


    Наши приложения

    • Muzbank App Play Market
    • Muzbank Amazon App