MUZBANK



A Most Complete Bank Of Music Information

МУЗЫКАЛЬНО-ИНФОРМАЦИОННЫЙ БАНК

Поиск по сайту







    BBlack Label Society • Bleed For Me (аккорды и текст - chords & lyrics)


    171

    Print

    Видео «Bleed For Me (Black Label Society)»

    Видео клипы к песне подбираются автоматически сайтом youtube. Возможны некоторые несоответствия клипов песне.

    ↑ Спрятать рекламу ↑



    Download



     Dropped C tuning: C G C F A D
    
    
    D------------------------------------------------------------
    A------------------------------------------------------------
    F------------------------------------------------------------
    C------------------------------------------------------------
    G------------------------------------------3-5-3----3--------
    C-3-0-0-0-0-0---3-0-0-0-0-0---3-0-0-0-0-0---------5---5-3-0--
    
    D--------------------------------------------
    A--------------------------------------------
    F--------------------------------------------
    C-------------------------------------------3
    G-------------------------------------------3
    C-3-0-0-0-0-0---3-0-0-0-0-0---3-0-0-0-0-0---3
    
    Verse stuff :
    
    D--------------------------------------
    A--------------------------------------
    F--------------------------12/13--12/13
    C--3-0-0-5-0-0-3-0-0-6-0-0--x--x---x--x
    G--3-0-0-5-0-0-3-0-0-6-0-0-10/11--10/11
    C--3-0-0-5-0-0-3-0-0-6-0-0-------------
    
    Then some chorus stuff:
    
    D------------------------
    A------------------------
    F-7---/12--10--9/109--5-
    C-7-----X---X--X--X-X--X-
    G-5---/10---8--7-/87--3-
    C-0----------------------
    
    D-------------------------
    A-------------------------
    F-7---/12--10--9/109--5-3
    C-7-----X---X--X--X-X--X-x
    G-5---/10---8--7-/87--3-1
    C-0-----------------------
    
    I havent got time to figure out the whole solo but heres what I got:
    
    D------------------------------------
    A-------------------10-12-13-10-12-13 --13b
    F-10-12-13-10-12-13------------------
    C------------------------------------
    G------------------------------------
    C------------------------------------
    Fool around with this part couple of time then bend the 13 on A string. 
    
    Then fool around with this lick
    
    D-15-13-15-13----------------------------------------------
    A------------15-13-15-13-15-13-----------------------------
    F------------------------------14-12-14-12-14-13-12--------
    C---------------------------------------------------15-12~-
    G----------------------------------------------------------
    C---------------------------------------------------------- 

    Тональность:

    Нет текста!



    Назад
    Рекомендуем посмотреть другие песни исполнителя «Black Label Society»:

    • Комментарии Facebook ()
    • Комментарии ВКонтакте



    Добавить в Избранное Браузера
    Сохранить здесь Очистить


    x

    0


    +
    -

    +
    -

    -

    Авторизация





    Зарегистрироваться

    M

    Дата и время

    • 03:37:02
       

    Социальные ссылки


    Наши приложения

    • Muzbank App Play Market
    • Muzbank Amazon App