MUZBANK



A MOST COMPLETE BANK OF MUSIC INFORMATION

МУЗЫКАЛЬНО-ИНФОРМАЦИОННЫЙ БАНК







    BBlack Rebel Motorcycle Club • Spread Your Love (аккорды и текст - chords & lyrics)


    237

    Print

    Видео «Spread Your Love (Black Rebel Motorcycle Club)»

    Видео клипы к песне подбираются автоматически сайтом youtube. Возможны некоторые несоответствия клипов песне.

    ↑ Спрятать рекламу ↑






     
    
    
    Black Rebel MotorCycle Club
    Spread your Love
    ct
    
    the main  parts of this song go to the bassline, which create the main vibe
    but the guitar plays nice little fills and riffs which complete the song...
    heres my attempt at them, the timings not quite spot on, but you should be 
    able to work through it
    
    Intro 
    E------------------------------------
    B------------------------------------
    G------------------------------------
    D---5b6-5b6-5b6-5b6-5b7/5-3b4------0-
    A------------------------------------
    E------------------------------------
    
    Verse/Chorus				
    E----5---5--5-5--5--5-5--5-5---1--3	
    B----7---7--7-7--7--7-7--7-7---1--0	
    G----7---7--7-7--7--7-7--7-7---2--0	
    D----7---7--7-7--7--7-7--7-7---3--0	
    A----5---5--5-5--5--5-5--5-5---3--2	
    E------------------------------1--3	
    
    Bridge					
    E----5--3--3--1--3--5			
    B----7--5--3--1--3--7			
    G----7--5--4--2--4--7			
    D----7--5--5--3--5--7			
    A----5--3--5--3--5--5			
    E----------3--1--3---
    
    			
    Fill (0.53) then the intro fill after this
    E---10-------------10-10--------------
    B-------13---------------13-----------
    G----------10b11------------10b11-----
    D---------------12---------------12---
    A-------------------------------------
    E-------------------------------------
    
    (1.49 bridge fill
    E-------------------------------------
    B-------------------------------------
    G--//14-14----------------------------
    D--//12-12-----9b10b9--7--9b10b9--7---
    A-------------------------------------
    E-------------------------------------
     

    Тональность:

    Это должно быть в ТОП-листе! - Топ-лист композиций



    Назад
    Рекомендуем посмотреть другие песни исполнителя «Black Rebel Motorcycle Club»:

    • Комменты Fb ()
    • Комменты ВК



    Добавить в Избранное Браузера
    Сохранить здесь Очистить


    x

    0


    +
    -

    +
    -

    -

    Авторизация





    Зарегистрироваться

    M

    Дата и время

    • 19:54:56
       

    Социальные ссылки


    Наши приложения

    • Muzbank App Play Market
    • Muzbank Amazon App