MUZBANK



A Most Complete Bank Of Music Information

МУЗЫКАЛЬНО-ИНФОРМАЦИОННЫЙ БАНК

Поиск по сайту







    BBlack Sabbath • Dying For Love (аккорды и текст - chords & lyrics)


    372

    Print

    Видео «Dying For Love (Black Sabbath)»

    Видео клипы к песне подбираются автоматически сайтом youtube. Возможны некоторые несоответствия клипов песне.

    ↑ Спрятать рекламу ↑



    Download



    OPENING SOLO
    (.29)
    E|-----6-------------6-5~-6-8s/10-6~---55-8-5-6-5~-----6~s⁄(3)-|
    B|------8~s⁄(3)------------------------------------6/8~--------|
    G|7^(9)---------7^(9)------------------------------------------|
    D|-------------------------------------------------------------|
    A|-------------------------------------------------------------|
    E|-------------------------------------------------------------|
    
    E|-10-8---10-8--8-----------|
    B|------10----10--10~/11⁄10-|
    G|--------------------------|
    D|--------------------------|
    A|--------------------------|
    E|--------------------------|
    
    (.47)
    E|--------------------------------------------------------------------|
    B|-----13-12~--11--10-------11---10-----------------------------6-8~--|
    G|12-------------12--12-------12---12----------5~~p3--7-5~~--5/7----7-|
    D|--12------------------10-----------10//12~~-------5-----------------|
    A|--------------------------------------------------------------------|
    E|--------------------------------------------------------------------|
    
    E|-----------------
    B|-----------------
    G|-5h7p5h7p5⁄3~/5--
    D|-----------------
    A|-----------------
    E|-----------------
    
    (.53)
    E|------------------------------------------------------------------------|
    B|----------11------12-11-----------11-110-8-----8p6-6-------6------------|
    G|-----12-12---12-12-----12-10~---12--------10-7----7-7p5-5h7--7p5⁄3-5-3~-|
    D|10/12-------------------------12----------------------------------------|
    A|------------------------------------------------------------------------|
    E|------------------------------------------------------------------------|
    
    (.54-.59)
    E|--------------------|
    B|--------------------|
    G|----5^(7`5)---------|
    D|5-7--------7-5-4-3~-|
    A|--------------------|
    E|--------------------|
    
    (.59)
    C arpegio C arpegio C arpegio C arpegio
    E|---------------------------------------------------------------------------|
    B|---1---1----1---1-----1---1----1---1-----1---1-----1---1----1---1----1---1-|
    G|--0---*-0--0---0-----0---*-0--0---0-----0---*-0--0---0-----0---*-0--0---0--|
    D|-0---*----0---0-----0---*----0---0-----0---*----0---0-----0---*----0---0---|
    A|3---3----3---1-----3---3----3---1----33---3----3---1-----3---3----3---1----|
    E|---------------------------------------------------------------------------|
    (Guitar 1)
    
    E|-------------------------------------------------------------------|
    B|-------------------------------------------------------------------|
    G|--------3----------------------------------------------------------|
    D|----3-3----3-------0h3-3----0-----------0-0----3---------0h3-3---0-|
    A|-3-------------3-------------------3-----------------3-------------|
    E|-------------------------------------------------------------------|
    (Guitar 2 and/or Bass)
    
    C arpegio C arpegio C arpegio C arpegio
    E|---------------------------------------------------------------------------|
    B|---1---1----1---1-----1---1----1---1-----1---1-----1---1----1---1----1---1-|
    G|--0---*-0--0---0-----0---*-0--0---0-----0---*-0--0---0-----0---*-0--0---0--|
    D|-0---*----0---0-----0---*----0---0-----0---*----0---0-----0---*----0---0---|
    A|3---3----3---1-----3---3----3---1----33---3----3---1-----3---3----3---1----|
    E|---------------------------------------------------------------------------|
    (Guitar 1)
    
    E|-------------------------------------------------------------------|
    B|-------------------------------------------------------------------|
    G|--------3----------------------------------------------------------|
    D|----3-3----3-------0h3-3----0-----------0-0----3---------0h3-3---0-|
    A|-3-------------3-------------------3-----------------3-------------|
    E|-------------------------------------------------------------------|
    (Guitar 2 and/or Bass)
    Can you hear the people sin their songs? To tunes of Glory, they move as one.
    
    C arpegio C arpegio C arpegio C arpegio
    E|---------------------------------------------------------------------------|
    B|---1---1----1---1-----1---1----1---1-----1---1-----1---1----1---1----1---1-|
    G|--0---*-0--0---0-----0---*-0--0---0-----0---*-0--0---0-----0---*-0--0---0--|
    D|-0---*----0---0-----0---*----0---0-----0---*----0---0-----0---*----0---0---|
    A|3---3----3---1-----3---3----3---1----33---3----3---1-----3---3----3---1----|
    E|---------------------------------------------------------------------------|
    (Guitar 1)
    
    E|-------------------------------------------------------------------|
    B|-------------------------------------------------------------------|
    G|--------3----------------------------------------------------------|
    D|----3-3----3-------0h3-3----0-----------0-0----3---------0h3-3---0-|
    A|-3-------------3-------------------3-----------------3-------------|
    E|-------------------------------------------------------------------|
    (Guitar 2 and/or Bass)
    Refugees of Liberation, marching on. Sing your songs,
    Rock the Nation, Right our Wrongs
    
    CHOURSE (1:53)
    
    D arpegio D arpegio
    E|------0-----------0--------------------------|
    B|-----3-3---------3-3-------------------------|
    G|----2---2-------2---2------------------------|
    D|---0-----0-----0-----0---3---0---------------|
    A|0-----------0--------------------3---22----0-|
    E|----------------------------------------3----|
    
    E|-----0-----------0---------------------|
    B|----3-3---------3-3--------------------|
    G|---2---2-------2---2-------------------|
    D|--0-----0-----0-----0---3---0----------|
    A|----------0--------------------3---2---|
    E|-------------------------------------3-|
    When you tke a life and steal its shadow. All that's left is humanity.
    
    C arpegio C arpegio C arpegio C arpegio
    E|---------------------------------------------------------------------------|
    B|---1---1----1---1-----1---1----1---1-----1---1-----1---1----1---1----1---1-|
    G|--0---*-0--0---0-----0---*-0--0---0-----0---*-0--0---0-----0---*-0--0---0--|
    D|-0---*----0---0-----0---*----0---0-----0---*----0---0-----0---*----0---0---|
    A|3---3----3---1-----3---3----3---1----33---3----3---1-----3---3----3---1----|
    E|---------------------------------------------------------------------------|
    (Guitar 1)
    
    E|-------------------------------------------------------------------|
    B|-------------------------------------------------------------------|
    G|--------3----------------------------------------------------------|
    D|----3-3----3-------0h3-3----0-----------0-0----3---------0h3-3---0-|
    A|-3-------------3-------------------3-----------------3-------------|
    E|-------------------------------------------------------------------|
    (Guitar 2 and/or Bass)
    It's gettin' closer, a change is bound to come. There's someone out there,
    holding candles to the sun
    
    C arpegio C arpegio C arpegio C arpegio
    E|---------------------------------------------------------------------------|
    B|---1---1----1---1-----1---1----1---1-----1---1-----1---1----1---1----1---1-|
    G|--0---*-0--0---0-----0---*-0--0---0-----0---*-0--0---0-----0---*-0--0---0--|
    D|-0---*----0---0-----0---*----0---0-----0---*----0---0-----0---*----0---0---|
    A|3---3----3---1-----3---3----3---1----33---3----3---1-----3---3----3---1----|
    E|---------------------------------------------------------------------------|
    (Guitar 1)
    
    E|-------------------------------------------------------------------|
    B|-------------------------------------------------------------------|
    G|--------3----------------------------------------------------------|
    D|----3-3----3-------0h3-3----0-----------0-0----3---------0h3-3---0-|
    A|-3-------------3-------------------3-----------------3-------------|
    E|-------------------------------------------------------------------|
    (Guitar 2 and/or Bass)
    Then an answer, says Peace will come around. Stand in line,
    take your time and be Proud
    
    CHOURSE (2:47)
    
    D arpegio D arpegio
    E|------0-----------0--------------------------|
    B|-----3-3---------3-3-------------------------|
    G|----2---2-------2---2------------------------|
    D|---0-----0-----0-----0---3---0---------------|
    A|0-----------0--------------------3---22----0-|
    E|----------------------------------------3----|
    
    E|-----0-----------0---------------------|
    B|----3-3---------3-3--------------------|
    G|---2---2-------2---2-------------------|
    D|--0-----0-----0-----0---3---0----------|
    A|----------0--------------------3---2---|
    E|-------------------------------------3-|
    When you tke a life and steal its shadow. All that's left is humanity. Yeah
    
    D arpegio D arpegio
    E|------0-----------0--------------------------|
    B|-----3-3---------3-3-------------------------|
    G|----2---2-------2---2------------------------|
    D|---0-----0-----0-----0---3---0---------------|
    A|0-----------0--------------------3---22----0-|
    E|----------------------------------------3----|
    
    E|-----0-----------0---------------------|
    B|----3-3---------3-3--------------------|
    G|---2---2-------2---2-------------------|
    D|--0-----0-----0-----0---3---0----------|
    A|----------0--------------------3---2---|
    E|-------------------------------------3-|
    Take a man and steal tomorrow. All that's left is you and me, Oh yeah!
    
    BRIDGE (3:23)
    A A A G A A G A C~ A A A G A
    E|------------------------------------------------|
    B|------------------------------------------------|
    G|------------------------------------------------|
    D|------------------------------------------------|
    A|7--7--7--5--7-----7--5--7--10~---7--7---7--5--7-|
    E|5--5--5--3--5-----5--3--5---8~---5--5---5--3--5-|
    Hear them call you, Soldiers all in the field of Love
    
    A A A G A A G A C~ A B C D E (3:42)
    E|----------------------------------------------------|
    B|----------------------------------------------------|
    G|----------------------------------------------------|
    D|----------------------------------------------------|
    A|7--7--7--5--7-----7--5--7--10~---7--9---10---12--14-|
    E|5--5--5--3--5-----5--3--5---8~---5--7----8---10--12-|
    Brothers, Sisters, children all dying for love
    
    E|------------------------------------------------------------|
    B|---8-10-10/12--10-10⁄8-----------8-10--10/12--10⁄8--15-12~~-|
    G|7/9-------------------7-9~---7/9----------------------------|
    D|------------------------------------------------------------|
    A|------------------------------------------------------------|
    E|------------------------------------------------------------|
    (Guitar 1)
    
    C E F C G C C E F C G C
    E|----------------------------------------------------------------|
    B|----------------------------------------------------------------|
    G|----------------------------------------------------------------|
    D|5----9----10----5---------5--------5-----9----10----5---------5-|
    A|3----7-----8----3----5----3--------3-----7-----8----3----5----3-|
    E|---------------------3-----------------------------------3------|
    (Guitar 2)
    (3:59)
    E|---------------------------------------------------------------|
    B|---8-10-10/12--10-10⁄8-----------8-10--10/12--10⁄8--15-14-13~~-|
    G|7/9-------------------7-9~---7/9-------------------------------|
    D|---------------------------------------------------------------|
    A|---------------------------------------------------------------|
    E|---------------------------------------------------------------|
    (Guitar 1)
    (3:59)
    C E F C G C C E F C G C
    E|----------------------------------------------------------------|
    B|----------------------------------------------------------------|
    G|----------------------------------------------------------------|
    D|5----9----10----5---------5--------5-----9----10----5---------5-|
    A|3----7-----8----3----5----3--------3-----7-----8----3----5----3-|
    E|---------------------3-----------------------------------3------|
    (Guitar 2)
    
    C arpegio C arpegio C arpegio C arpegio
    E|---------------------------------------------------------------------------|
    B|---1---1----1---1-----1---1----1---1-----1---1-----1---1----1---1----1---1-|
    G|--0---*-0--0---0-----0---*-0--0---0-----0---*-0--0---0-----0---*-0--0---0--|
    D|-0---*----0---0-----0---*----0---0-----0---*----0---0-----0---*----0---0---|
    A|3---3----3---1-----3---3----3---1----33---3----3---1-----3---3----3---1----|
    E|---------------------------------------------------------------------------|
    (Guitar 1)
    
    C E F C G C C E F C G C
    E|----------------------------------------------------------------|
    B|----------------------------------------------------------------|
    G|----------------------------------------------------------------|
    D|5----9----10----5---------5--------5-----9----10----5---------5-|
    A|3----7-----8----3----5----3--------3-----7-----8----3----5----3-|
    E|---------------------3-----------------------------------3------|
    (Guitar 2)
    Refugees of Liberation, marching on, sing your songs, Rock the Nation,
    Right our wrongs
    
    CHOURSE (4:17)
    
    D arpegio D arpegio
    E|------0-----------0-----------------------|
    B|-----3-3---------3-3----------------------|
    G|----2---2-------2---2---------------------|
    D|---0-----0-----0-----0---3---0------------|
    A|0-----------0--------------------3---22---|
    E|----------------------------------------3-|
    
    E|--------0-----------0---------------------|
    B|-------3-3---------3-3--------------------|
    G|------2---2-------2---2-------------------|
    D|-----0-----0-----0-----0---3---0----------|
    A|-0-----------0--------------------3---2---|
    E|----------------------------------------3-|
    (Guitar 1)
    
    A5 A5 B#5 C5 G5 F5 D5 C5 B#5 A5 A5 B#5 C5 G5 F5 D5 C5 B#5
    E|-------------------------------------------------------------|
    B|-------------------------------------------------------------|
    G|2------------------------------------------2-----------------|
    D|2-----2--4--5----------10----7---5---44----2-----2--4--5-----|
    A|0-----0--2--3---5-------8----5---3---22----0-----0--2--3---5-|
    E|----------------3-----------------------3~-------------------|
    
    E|--------------------|
    B|--------------------|
    G|--------------------|
    D|-10----7---5---4----|
    A|--8----5---3---2----|
    E|-----------------3~-|
    (Guitar 2)
    (When you) take a life and steal its shadow. All that's left is humanity. Ohh
    
    D arpegio D arpegio
    E|------0-----------0-------------------------------0------|
    B|-----3-3---------3-3-----------------------------3-3-----|
    G|----2---2-------2---2---------------------------2---2----|
    D|---0-----0-----0-----0---3---0-----------------0-----0---|
    A|0-----------0--------------------3---22----0-----------0-|
    E|----------------------------------------3----------------|
    
    E|----0---------------------|
    B|---3-3--------------------|
    G|--2---2-------------------|
    D|-0-----0---3---0----------|
    A|------------------3---2---|
    E|------------------------3-|
    Take a man and steal tomorrow. All that's left is you and me, Oh yeah!
    
    A5 A5 B#5 C5 G5 F5 D5 C5 B#5 A5 A5 B#5 C5 G5 F5 D5 C5 B#5
    E|---------------------------------------------------------|
    B|---------------------------------------------------------|
    G|2------------------------------------------2-------------|
    D|2-----2--4--5----------10----7---5---44----2-----2--4--5-|
    A|0-----0--2--3---5-------8----5---3---22----0-----0--2--3-|
    E|----------------3-----------------------3~---------------|
    
    E|---------------------------|
    B|---------------------------|
    G|---------------------------|
    D|--------10----7---5---4----|
    A|-5-------8----5---3---2----|
    E|-3----------------------3~-|
    (Guitar 2)
    
    (4:52)
    D arpegio D arpegio
    E|------0-----------0-------------------------------0------|
    B|-----3-3---------3-3-----------------------------3-3-----|
    G|----2---2-------2---2---------------------------2---2----|
    D|---0-----0-----0-----0---3---0-----------------0-----0---|
    A|0-----------0--------------------3---22----0-----------0-|
    E|----------------------------------------3----------------|
    
    E|----0---------------------|
    B|---3-3--------------------|
    G|--2---2-------------------|
    D|-0-----0---3---0----------|
    A|------------------3---2---|
    E|------------------------3-|
    (Guitar 1)
    
    A A A G A A B C G E F D C A A A G A A B C G E F D C
    E|--------------------------------------|
    B|--------------------------------------|
    G|--------------------------------------|
    D|------------------------10--7--5------|
    A|7-7-7-5-7--7-9-10-5--14--8--5--3--2---|
    E|5-5-5-3-5--5-7--8-3--12------------3~-|
    
    E|---------------------------------------|
    B|---------------------------------------|
    G|---------------------------------------|
    D|-------------------------10--7--5------|
    A|-7-7-7-5-7--7-9-10-5--14--8--5--3--2---|
    E|-5-5-5-3-5--5-7--8-3--12------------3~-|
    (Guitar 2)
    Hear them call you, dying for love,
    
    D arpegio D arpegio
    E|------0-----------0-------------------------------0------|
    B|-----3-3---------3-3-----------------------------3-3-----|
    G|----2---2-------2---2---------------------------2---2----|
    D|---0-----0-----0-----0---3---0-----------------0-----0---|
    A|0-----------0--------------------3---22----0-----------0-|
    E|----------------------------------------3----------------|
    
    E|----0---------------------|
    B|---3-3--------------------|
    G|--2---2-------------------|
    D|-0-----0---3---0----------|
    A|------------------3---2---|
    E|------------------------3-|
    (Guitar 1)
    
    A A A G A A B C G E F D C A A A G A A B C G E F D C
    E|--------------------------------------|
    B|--------------------------------------|
    G|--------------------------------------|
    D|------------------------10--7--5------|
    A|7-7-7-5-7--7-9-10-5--14--8--5--3--2---|
    E|5-5-5-3-5--5-7--8-3--12------------3~-|
    
    E|---------------------------------------|
    B|---------------------------------------|
    G|---------------------------------------|
    D|-------------------------10--7--5------|
    A|-7-7-7-5-7--7-9-10-5--14--8--5--3--2---|
    E|-5-5-5-3-5--5-7--8-3--12------------3~-|
    (Guitar 2)
    Those who know you, dying for love
    
    D arpegio D arpegio
    E|------0-----------0--------------------------|
    B|-----3-3---------3-3-------------------------|
    G|----2---2-------2---2------------------------|
    D|---0-----0-----0-----0---3---0---------------|
    A|0-----------0--------------------3---22----0-|
    E|----------------------------------------3----|
    
    E|----0-----------0---------------------|
    B|---3-3---------3-3--------------------|
    G|--2---2-------2---2-------------------|
    D|-0-----0-----0-----0---3---0----------|
    A|---------0--------------------3---2---|
    E|------------------------------------3-|
    (Guitar 1)
    
    A A A G A A B C G E F D C A A A G A A B C G E F D C
    E|--------------------------------------|
    B|--------------------------------------|
    G|--------------------------------------|
    D|------------------------10--7--5------|
    A|7-7-7-5-7--7-9-10-5--14--8--5--3--2---|
    E|5-5-5-3-5--5-7--8-3--12------------3~-|
    
    E|---------------------------------------|
    B|---------------------------------------|
    G|---------------------------------------|
    D|-------------------------10--7--5------|
    A|-7-7-7-5-7--7-9-10-5--14--8--5--3--2---|
    E|-5-5-5-3-5--5-7--8-3--12------------3~-|
    (Guitar 2)
    
    E|--------------------------------------|
    B|--------------------8--10~~~--10p8⁄5~-|
    G|---------------5h7/9------------------|
    D|7-7-7-5-7---5h7-----------------------|
    A|--------------------------------------|
    E|--------------------------------------|
    (Guitar 3)
    Brothers, Sisters, dying for love
    
    D arpegio D arpegio
    E|------0-----------0--------------------------|
    B|-----3-3---------3-3-------------------------|
    G|----2---2-------2---2------------------------|
    D|---0-----0-----0-----0---3---0---------------|
    A|0-----------0--------------------3---22----0-|
    E|----------------------------------------3----|
    
    E|----0-----------0---------------------|
    B|---3-3---------3-3--------------------|
    G|--2---2-------2---2-------------------|
    D|-0-----0-----0-----0---3---0----------|
    A|---------0--------------------3---2---|
    E|------------------------------------3-|
    (Guitar 1)
    
    A A A G A A B C G E F D C A A A G A A B C G E F D C
    E|--------------------------------------|
    B|--------------------------------------|
    G|--------------------------------------|
    D|------------------------10--7--5------|
    A|7-7-7-5-7--7-9-10-5--14--8--5--3--2---|
    E|5-5-5-3-5--5-7--8-3--12------------3~-|
    
    E|---------------------------------------|
    B|---------------------------------------|
    G|---------------------------------------|
    D|-------------------------10--7--5------|
    A|-7-7-7-5-7--7-9-10-5--14--8--5--3--2---|
    E|-5-5-5-3-5--5-7--8-3--12------------3~-|
    (Guitar 2)
    
    E|-------7~⁄(3)-8~⁄(5)--12~~------------|
    B|8/10~~----------------------(13)/18~~-|
    G|--------------------------------------|
    D|--------------------------------------|
    A|--------------------------------------|
    E|--------------------------------------|
    
    E|---------------20^(22)--17~-17p15--17~--17p15--17~-|
    B|-18-18p15-15----------17---------17----------17----|
    G|------------17-------------------------------------|
    D|---------------------------------------------------|
    A|---------------------------------------------------|
    E|---------------------------------------------------|
    (Guitar 3)
    Saints and Sinners, dying for love (5:25 Begin Coda)
    
    D arpegio D arpegio
    E|------0-----------0--------------------------|
    B|-----3-3---------3-3-------------------------|
    G|----2---2-------2---2------------------------|
    D|---0-----0-----0-----0---3---0---------------|
    A|0-----------0--------------------3---22----0-|
    E|----------------------------------------3----|
    
    E|----0-----------0---------------------|
    B|---3-3---------3-3--------------------|
    G|--2---2-------2---2-------------------|
    D|-0-----0-----0-----0---3---0----------|
    A|---------0--------------------3---2---|
    E|------------------------------------3-|
    (Guitar 1)
    
    A A A G A A B C G E F D C A A A G A A B C G E F D C
    E|--------------------------------------|
    B|--------------------------------------|
    G|--------------------------------------|
    D|------------------------10--7--5------|
    A|7-7-7-5-7--7-9-10-5--14--8--5--3--2---|
    E|5-5-5-3-5--5-7--8-3--12------------3~-|
    
    E|----------------------------------------|
    B|----------------------------------------|
    G|----------------------------------------|
    D|--------------------------10--7--5------|
    A|--7-7-7-5-7--7-9-10-5--14--8--5--3--2---|
    E|--5-5-5-3-5--5-7--8-3--12------------3~-|
    (Guitar 2)
    (5:38)
    E|20^(22)-20-17--17h20p17-------------------|
    B|-----------------------20^(22s`20)-17--17-|
    G|------------------------------------------|
    D|------------------------------------------|
    A|------------------------------------------|
    E|------------------------------------------|
    
    E|-------------------------------------------|
    B|-------------------------------------5-----|
    G|-(3/)10~-(8h10p8 tr~)-10p8--5~--7^(9)-7p5~-|
    D|---------------------------7---------------|
    A|-------------------------------------------|
    E|-------------------------------------------|
    (Guitar 3)
    Dying for Love
    
    D arpegio D arpegio
    E|------0-----------0--------------------------|
    B|-----3-3---------3-3-------------------------|
    G|----2---2-------2---2------------------------|
    D|---0-----0-----0-----0---3---0---------------|
    A|0-----------0--------------------3---22----0-|
    E|----------------------------------------3----|
    
    E|----0-----------0---------------------|
    B|---3-3---------3-3--------------------|
    G|--2---2-------2---2-------------------|
    D|-0-----0-----0-----0---3---0----------|
    A|---------0--------------------3---2---|
    E|------------------------------------3-|
    (Guitar 1)
    
    A A A G A A B C G E F D C A A A G A A B C G E F D C (5:46)
    E|--------------------------------------|
    B|--------------------------------------|
    G|--------------------------------------|
    D|------------------------10--7--5------|
    A|7-7-7-5-7--7-9-10-5--14--8--5--3--2---|
    E|5-5-5-3-5--5-7--8-3--12------------3~-|
    
    E|---------------------------------------|
    B|---------------------------------------|
    G|---------------------------------------|
    D|-------------------------10--7--5------|
    A|-7-7-7-5-7--7-9-10-5--14--8--5--3--2---|
    E|-5-5-5-3-5--5-7--8-3--12------------3~-|
    (Guitar 2)
    (5:46)
    E|---------------------------------------------------------------|
    B|------------------------------------------10p8-8---------------|
    G|(5)/9~~⁄(7)---7-9~~⁄(7)---7-9~~⁄(7)--77-9-----9-9p7⁄5-5-7p5----|
    D|------------9------------9----------9----------------7-----7-5-|
    A|---------------------------------------------------------------|
    E|---------------------------------------------------------------|
    (Guitar 3)
    

    Тональность:

    Нет текста!



    Назад
    Рекомендуем посмотреть другие песни исполнителя «Black Sabbath»:

    • Комментарии Facebook ()
    • Комментарии ВКонтакте



    Добавить в Избранное Браузера
    Сохранить здесь Очистить


    x

    0


    +
    -

    +
    -

    -

    Авторизация





    Зарегистрироваться

    M

    Дата и время

    • 11:20:32
       

    Социальные ссылки


    Наши приложения

    • Muzbank App Play Market
    • Muzbank Amazon App