MUZBANK



A Most Complete Bank Of Music Information

МУЗЫКАЛЬНО-ИНФОРМАЦИОННЫЙ БАНК

Поиск по сайту







    BBlack Sabbath • Forbidden (аккорды и текст - chords & lyrics)


    285

    Print

    Видео «Forbidden (Black Sabbath)»

    Видео клипы к песне подбираются автоматически сайтом youtube. Возможны некоторые несоответствия клипов песне.

    ↑ Спрятать рекламу ↑



    Download


     
    
    
    Forbidden
     Black Sabbath - Forbidden
     
     Tune Down alot
     
     |----------------------------------------------------------
     |----------------------------------------------------------
     |-----------------------------------------------9----------
     |-----------------------------------------------9----------
     |-5-5-5-5-4---------------5-5-5-5-4-------------7----------
     |-----------2-2-2-2-0---------------2-2-2-2-0-0------------
     
     |----------------------------------------------------------
     |----------------------------------------------------------
     |---------------------------12-----------------------------
     |---1412-10-10-10-/14--12--12----1412-10-10-10-/14--12---
     |---1412-10-10-10-/14--12--10----1412-10-10-10-/14--12---
     |-0-1210--8--8--8-/12--10------0-1210--8--8--8-/12--10---
     
     "If I had to live again..."
     |----------------------------------------------------------
     |----------------------------------------------------------
     |(12)-----------------------12-----------------------12--
     |-12-----------8------------12---------8-------------12--
     |-10------8h10---10-8h10--10----8h10---10-8h10---10--
     |----------------------------------------------------------
     
     Backing to solo:
     |----------------------------------------------------------
     |----------------------------------------------------------
     |-12---9-----7-9-7-9---7h9---7h9---------------------------
     |-12---9-----7-9-7-9---7h9---7h9--0---0---0---0---0--------
     |-10---7-----5-7-5-7---7-----7-----------------------------
     |-----------------------------------7---6---5---3---2^-0---
     Solo:
     |----------------------------------------------------------
     |--------------------15^--15^-15^--^15-12-15^-15^-15^------
     |-12-14^^14-12---------------------------------------------
     |-----------------14---------------------------------------
     |----------------------------------------------------------
     |----------------------------------------------------------
     
     |----15^--15p12---------12------------------------------------
     |-12------------15^--------15p12------------------------------
     |--------------------------------15-14h15p14-12-14-12-14^-14^-
     |-------------------------------------------------------------
     |-------------------------------------------------------------
     |-------------------------------------------------------------
     
     |-----------17^---15~~-------
     |-----------------------------
     |-^14-12----------------------
     |--------14-------------------
     |-----------------------------
     |-----------------------------
     

    Тональность:

    Нет текста!



    Назад
    Рекомендуем посмотреть другие песни исполнителя «Black Sabbath»:

    • Комментарии Facebook ()
    • Комментарии ВКонтакте



    Добавить в Избранное Браузера
    Сохранить здесь Очистить


    x

    0


    +
    -

    +
    -

    -

    Авторизация





    Зарегистрироваться

    M

    Дата и время

    • 13:01:40
       

    Социальные ссылки


    Наши приложения

    • Muzbank App Play Market
    • Muzbank Amazon App