MUZBANK



A Most Complete Bank Of Music Information

МУЗЫКАЛЬНО-ИНФОРМАЦИОННЫЙ БАНК

Поиск по сайту







    BBlack Sabbath • Iron Man (ver 13) (аккорды и текст - chords & lyrics)


    416

    Print

    Видео «Iron Man (ver 13) (Black Sabbath)»

    Видео клипы к песне подбираются автоматически сайтом youtube. Возможны некоторые несоответствия клипов песне.

    ↑ Спрятать рекламу ↑



    Download


     
    
    
    |----------|----------|----------------|--------------------|
    |----------|----------|----------------|--------------------|
    |----------|----------|----------------|--------------------|
    |----------|----------|----------------|--------------------|
    |----------|----------|----------------|--------------------|
    |----------|----------|-0pb2r=====(0)--|-(0)b2----(0)--(0)--|
    
    |----------------|-----------------|-----------------------|
    |----------------|-----------------|-----------------------|
    |----------------|-----------------|-----------------------|
    |----------------|-----------------|-----------------------|
    |----------------|-----------------|-----------------------|
    |-0pb2r=====(0)--|-(0)------([0])--|-(0)b2--(0)--(0)--(0)--|
    
    |----------------|-------------------|
    |----------------|-------------------|
    |----------------|-------------------|
    |----------------|-------------------|
    |----------------|-------------------|
    |-0pb2r=====(0)--|-(0)b2----(0)--(0)-|
    
    |------------------|--------------------------------|
    |------------------|--------------------------------|
    |------------------|--------------------------------|
    |------------------|--------------------------------|
    |-9--12--12s14-14--|-17-16-17-16-17-16-12-12s14-14--|
    |-7--10--10s12-12--|-15-14-15-14-15-14-10-10s12-12--|
    
    |------------------|---------------------------------|
    |------------------|---------------------------------|
    |------------------|---------------------------------|
    |------------------|---------------------------------|
    |-9--12--12s14-14--|-17-16-17-16-17-16-12-12s14-14--|
    |-7--10--10s12-12--|-15-14-15-14-15-14-10-10s12-12--|
    
       Verse 1
    
    ||---------------|-----------------------||
    ||o--------------|----------------------o||
    ||---------------|-----------------------||
    ||---------------|-5p4-5p4-5p4-----------||
    ||o----5--5s7-7--|-------------5-5s7-7--o||
    ||--7------------|-----------------------||
    
    |------------------|---------------------------------|
    |------------------|---------------------------------|
    |------------------|---------------------------------|
    |------------------|---------------------------------|
    |-9--12--12s14-14--|-17-16-17-16-17-16-12-12s14-14---|
    |-7--10--10s12-12--|-15-14-15-14-15-14-10-10s12-12---|
    
      Verse 2
    
    ||---------------|-----------------------||-|
    ||o--------------|----------------------o||-|
    ||---------------|-----------------------||-|
    ||---------------|-5p4-5p4-5p4-----------||-|
    ||o----5--5s7-7--|-------------5-5s7-7--o||-|
    ||--7------------|-----------------------||-|
    
    
    
    ||----------------------|--------------------||
    ||o---------------------|-------------------o||
    ||----------------------|--------------------||
    ||----------------------|--------------------||
    ||o------5b5.5-(5)------|-------------------o||
    ||--7-7------------7--6-|-5-5-5--0-4-5-5-6---||
    
    |---------------------|-------------|
    |---------------------|-------------|
    |---------------------|-------------|
    |---------------------|-------------|
    |------5b5.5-(5)------|-------------|
    |-7-7------------7--6-|-5-5-5-------|
    
    ||-------------------|---------------------------------||
    ||o------------------|--------------------------------o||
    ||-------------------|---------------------------------||
    ||-------------------|---------------------------------||
    ||o-9--12--12s14-14--|-17-16-17-16-17-16-12-12s14-14--o||
    ||--7--10--10s12-12--|-15-14-15-14-15-14-10-10s12-12---||
    
    
       Verses 3 & 4                            Chorus
       
    ||---------------|-----------------------||----------|------|
    ||o--------------|----------------------o||----------|------|
    ||---------------|-----------------------||-9--------|-7----|
    ||---------------|-5p4-5p4-5p4-----------||-9--------|-7----|
    ||o----5--5s7-7--|-------------5-5s7-7--o||-7--------|-5----|
    ||--7------------|-----------------------||-0--------|-0----|
    
    |------------------------|------------------------|----------|------|
    |------------------------|------------------------|----------|------|
    |------------------------|------------------------|-9--------|-7----|
    |------------------7-8-9-|------------------7-8-9-|-9--------|-7----|
    |-9-9------7-7-8-9-------|-9-9------7-7-8-9-------|-7--------|-5----|
    |-7-7-7-10---------------|-7-7-7-10---------------|-0--------|-0----|
    
    |------------------------|------------------------|
    |------------------------|------------------------|
    |------------------------|------------------------|
    |------------------7-8-9-|------------------7-8-9-|
    |-9-9------7-7-8-9-------|-9-9------7-7-8-9-------|
    |-7-7-7-10---------------|-7-7-7-10---------------|
    
    |------------------|--------------------------------|
    |------------------|--------------------------------|
    |------------------|--------------------------------|
    |------------------|--------------------------------|
    |-9--12--12s14-14--|-17-16-17-16-17-16-12-12s14-14--|
    |-7--10--10s12-12--|-15-14-15-14-15-14-10-10s12-12--|
    
    |------------------|--------------------------------|
    |------------------|--------------------------------|
    |------------------|--------------------------------|
    |------------------|--------------------------------|
    |-9--12--12s14-14--|-17-16-17-16-17-16-12-12s14-14--|
    |-7--10--10s12-12--|-15-14-15-14-15-14-10-10s12-12--|
    
     Interlude
    
    |----------------------------------|----------------------------------|
    |----------------------------------|----------------------------------|
    |----------------------------------|----------------------------------|
    |-11-9-----------------------------|-11-9-----------------------------|
    |--------11---10---9---7-----------|--------11---10---9---7-----------|
    |--------------------------7-7h9-9-|--------------------------7-7h9-9-|
    
     Guitar Solo
    
    |----------------------------------------|
    |----------------------------------------|
    |-----------------------------------9--9-|
    |--------------------------9-9-9h11---11-|
    |-----7-7h9-9p7---7-9-9s11---------------|
    |-7h9-----------9------------------------|
    
    |-------------------------------------------9----------|
    |-------------------------------------9-------12p9-----|
    |---------9-9-----------------(9)-11-11pb13--------11--|
    |-11p9--------11p9----9h11-11--------------------------|
    |------11----------11----------------------------------|
    |------------------------------------------------------|
    
    |-------------------------------------------------|
    |---------------------------------------------(0)-|
    |-11p9----9-9--------------9-9--------------9-----|
    |------11-----11p9----9h11-----11p9----9h11-------|
    |------------------11---------------11------------|
    |-------------------------------------------------|
    
    |-------------------------------------------|
    |-------------------------------------------|
    |-------------------------------------------|
    |-9h11--9h11-(11)-9h11-(11)-9h11--9h11-9h11-|
    |-------------------------------------------|
    |-------------------------------------------|
    
    |-------------------------------------------|
    |-------------------------------------------|
    |-------------------------------------------|
    |-9h11--9h11-(11)-9h11-(11)-9h11--9h11-9h11-|
    |-------------------------------------------|
    |-------------------------------------------|
    
    
    ||-------------------------------------||
    ||o-----------------------------------o||
    ||-------------------------------------||
    ||--11-9-------------------------------||
    ||o--------11---10---9---7------------o||
    ||---------------------------7-7h9-9---||
    
    
       Verse 5
    ||---------------|----------------------||
    ||o--------------|---------------------o||
    ||---------------|----------------------||
    ||---------------|-5p4-5p4-5p4----------||
    ||o----5--5s7-7--|-------------5-5s7-7-o||
    ||--7------------|----------------------||
    
    |----------|----------|----------------|------------|--------------------|
    |----------|----------|----------------|------------|--------------------|
    |----------|----------|----------------|------------|--------------------|
    |----------|----------|----------------|------------|--------------------|
    |----------|----------|----------------|------------|--------------------|
    |----------|----------|-0pb2r=====(0)--|-(0)--------|-(0)b2----(0)--(0)--|
    
    |----------------|------------|------------|-----------------------|
    |----------------|------------|------------|-----------------------|
    |----------------|------------|------------|-----------------------|
    |----------------|------------|------------|-----------------------|
    |----------------|------------|------------|-----------------------|
    |-0pb2r=====(0)--|-(0)--------|-(0)--------|-(0)b2--(0)--(0)--(0)--|
    
    ||-----------|----------|----------|-----------||-------------------|
    ||o----------|----------|----------|----------o||-------------------|
    ||-----------|----------|----------|-----------||-------------------|
    ||--9--------|-8--------|-7--------|-6---------||-4-5-4-5-4-5-4-----|
    ||o-9--------|-8--------|-7--------|-6--------o||---------------7---|
    ||--7--------|-6--------|-5--------|-4---------||-------------------|
    
    |----------|----------|----------|----------|------------------|
    |----------|----------|----------|----------|------------------|
    |----------|----------|----------|----------|------------------|
    |-9--------|-8--------|-7--------|-6--------|-4-5-4-5-4-5-4----|
    |-9--------|-8--------|-7--------|-6--------|---------------7--|
    |-7--------|-6--------|-5--------|-4--------|------------------|
    
    |----------|----------|----------|----------|-----------------|-------------*|
    |----------|----------|----------|----------|-----------------|-------------*|
    |----------|----------|----------|----------|-----------------|-------------*|
    |-9--------|-8--------|-7--------|-6--------|-4-5-4-5-4-5-4---|-------------*|
    |-9--------|-8--------|-7--------|-6--------|---------------7-|-7-5-7-------*|
    |-7--------|-6--------|-5--------|-4--------|-----------------|-------------*|
     

    Тональность:

    Нет текста!



    Назад
    Рекомендуем посмотреть другие песни исполнителя «Black Sabbath»:

    • Комментарии Facebook ()
    • Комментарии ВКонтакте



    Добавить в Избранное Браузера
    Сохранить здесь Очистить


    x

    0


    +
    -

    +
    -

    -

    Авторизация





    Зарегистрироваться

    M

    Дата и время

    • 14:46:38
       

    Социальные ссылки


    Наши приложения

    • Muzbank App Play Market
    • Muzbank Amazon App