MUZBANK



A Most Complete Bank Of Music Information

МУЗЫКАЛЬНО-ИНФОРМАЦИОННЫЙ БАНК

Поиск по сайту







    BBlack Sabbath • Junior`S Eyes (аккорды и текст - chords & lyrics)


    327

    Print

    Видео «Junior`S Eyes (Black Sabbath)»

    Видео клипы к песне подбираются автоматически сайтом youtube. Возможны некоторые несоответствия клипов песне.

    ↑ Спрятать рекламу ↑



    Download



    INTRO
    E|-----------------------------------------------------------------------|
    B|-----------------------------------------------------------------------|
    G|-----------------------------------------------------------------------|
    D|----------5~------------------7-7-5~------5-7p5-------------5~------5--|
    A|7⁄(3)--5h7--------5-7⁄(3)--5h7------(4))/7-----7--7⁄(3)--5h7---7-7-7-7-|
    E|-------------5-5-7-----------------------------------------------------|
    (Bass..Adopted for Guitar 2)
    
    [p>>f] Gm7
    E|---------------------------------------------------------------------|
    B|---------------------------------------------------------------------|
    G|------------------------------------------------------------------12-|
    D|------------------------------------------------------------------12-|
    A|---------------------------------------------------------------------|
    E|---------------------------------------------------------------------|
    {Begin Guitar 1 vp up} {wah}
    
    E|------------------------------------------------|
    B|------------------------------------------------|
    G|------------------------------------------------|
    D|----------7-7-5~--5/7-5---------------55~-------|
    A|7⁄(3)--5h7-------------5h7p5-7⁄(3)-5h7--------5-|
    E|-----------------------------------------5-5-7--|
    
    E|--------------------------------|
    B|--------------------------------|
    G|--------------------------------|
    D|-------------7-7-5~-------------|
    A|-7-7⁄(3)-5h7-------7-7-5--7-7-5-|
    E|--------------------------------|
    (Guitar 2/Bass)
    
    Gm7 Gm7
    E|-----------------------------------------------------------|
    B|-----------------------------------------------------------|
    G|12-------------------12⁄(7)---12--------------------12⁄(7)-|
    D|12-----10h12p10⁄(7)--12⁄(7)---12-----100h12p10⁄(7)--12⁄(7)-|
    A|-----------------------------------------------------------|
    E|-----------------------------------------------------------|
    {..........................wah............................}
    
    E|--------------------------------------------------------------------------|
    B|--------------------------------------------------------------------------|
    G|--------------------------------------------------------------------------|
    D|----------5~------------------7-7-5~------5-7p5-------------5~------5--5--|
    A|7⁄(3)--5h7--------5-7⁄(3)--5h7------(4))/7-----7--7⁄(3)--5h7---7-7-7-7--7-|
    E|-------------5-5-7--------------------------------------------------------|
    (Guitar 2/Bass)
    
    Gm7 Gm7⁄(Am7)
    E|----------------------------|
    B|----------------------------|
    G|12-------------------12⁄(7)-|
    D|12-----10h12p10⁄(7)--12⁄(7)-|
    A|----------------------------|
    E|----------------------------|
    {...............wah...............}
    (Guitar 1)
    
    E|------------------------------------------------|
    B|------------------------------------------------|
    G|------------------------------------------------|
    D|----------5~------------------7-7-5~------5-5---|
    A|7⁄(3)--5h7--------5-7⁄(3)--5h7------7-77-7-7--7-|
    E|-------------5-5-7------------------------------|
    (Guitar 2/Bass)
    Junior's eyes looked to the skies in tears
    
    Gm7 Gm7⁄(Am7)
    E|----------------------------|
    B|----------------------------|
    G|12-------------------12⁄(7)-|
    D|12-----10h12p10⁄(7)--12⁄(7)-|
    A|----------------------------|
    E|----------------------------|
    {...............wah...............}
    (Guitar 1)
    
    E|--------------------------------------------------|
    B|--------------------------------------------------|
    G|--------------------------------------------------|
    D|----------7-7-5~--5/7-5---------------55~---------|
    A|7⁄(3)--5h7-------------5h7p5-7⁄(3)-5h7--------5-7-|
    E|-----------------------------------------5-5-7----|
    (Guitar 2/Bass)
    He prayed that his maker, the giver and taker would hear
    
    Gm7 Gm7⁄(Am7)
    E|----------------------------|
    B|----------------------------|
    G|12-------------------12⁄(7)-|
    D|12-----10h12p10⁄(7)--12⁄(7)-|
    A|----------------------------|
    E|----------------------------|
    {...............wah...............}
    (Guitar 1)
    
    E|--------------------------------------------------|
    B|--------------------------------------------------|
    G|--------------------------------------------------|
    D|----------7-7-5~--5/7-5---------------55~---------|
    A|7⁄(3)--5h7-------------5h7p5-7⁄(3)-5h7--------5-7-|
    E|-----------------------------------------5-5-7----|
    (Guitar 2/Bass)
    Junior sighed as his hands reached out to the sky
    
    Gm7 Gm7⁄(Am7) Em7
    E|-----------------------------------|
    B|-----------------------------------|
    G|12-------------------12⁄(7)---14~~-|
    D|12-----10h12p10⁄(7)--12⁄(7)---14~~-|
    A|-----------------------------------|
    E|-----------------------------------|
    {...............wah...............}
    (Guitar 1)
    
    E|----------------------------------------------|
    B|----------------------------------------------|
    G|----------------------------------------------|
    D|----------7-7-5~--5/7-5------------7-7--7-7-7-|
    A|7⁄(3)--5h7-------------5h7p5-7⁄(3)------------|
    E|----------------------------------------------|
    (Guitar 2/Bass)
    Junior cried the day that his best friend died, yeah!
    
    CHOURSE
    E5 E5 E5 D5 C5 C5 C5 C5
    E|-----------------------------------------------|
    B|-----------------------------------------------|
    G|--9--xx-9-9--9--7--5-5-xx-5-5------------------|
    D|--9--xx-9-9--9--7--5-5-xx-5-5------------------|
    A|--7--xx-7-7--7--5--3-3-xx-3-3--2p0-2~-22/3-2p0-|
    E|0----------------------------------------------|
    You're coming home again tomorrow.
    
    E5 E5 E5 D5 C5 C5 C5 C5
    E|-----------------------------------------------|
    B|-----------------------------------------------|
    G|--9--xx-9-9--9--7--5-5-xx-5-5------------------|
    D|--9--xx-9-9--9--7--5-5-xx-5-5------------------|
    A|--7--xx-7-7--7--5--3-3-xx-3-3--2p0-2~-22/3-2p0-|
    E|0----------------------------------------------|
    I'm sorry it won't be for long
    
    E5 E5 E5 D5 C5 C5 C5 C5
    E|-----------------------------------------------|
    B|-----------------------------------------------|
    G|--9--xx-9-9--9--7--5-5-xx-5-5------------------|
    D|--9--xx-9-9--9--7--5-5-xx-5-5------------------|
    A|--7--xx-7-7--7--5--3-3-xx-3-3--2p0-2~-22/3-2p0-|
    E|0----------------------------------------------|
    With all the pain I've watched you live with in
    
    E5 E5 E5 D5 C5 B5 D5
    E|-------------------------------|
    B|-------------------------------|
    G|--9--xx-9-9--9--7--5-5-5--4--7-|
    D|--9--xx-9-9--9--7--5-5-5--4--7-|
    A|--7--xx-7-7--7--5--3-3-3--2--5-|
    E|0------------------------------|
    I'll try my hardest not to cry when it is time to say good bye.
    
    Gm7 Gm7
    E|-----------------------------------------------------------|
    B|-----------------------------------------------------------|
    G|12-------------------12⁄(7)---12--------------------12⁄(7)-|
    D|12-----10h12p10⁄(7)--12⁄(7)---12-----100h12p10⁄(7)--12⁄(7)-|
    A|-----------------------------------------------------------|
    E|-----------------------------------------------------------|
    {..........................wah............................}
    (Guitar 1)
    
    E|--------------------------------------------------------------------------|
    B|--------------------------------------------------------------------------|
    G|--------------------------------------------------------------------------|
    D|----------5~------------------7-7-5~------5-7p5-------------5~------5--5--|
    A|7⁄(3)--5h7--------5-7⁄(3)--5h7------(4))/7-----7--7⁄(3)--5h7---7-7-7-7--7-|
    E|-------------5-5-7--------------------------------------------------------|
    (Guitar 2/Bass)
    
    Gm7 Gm7⁄(Am7)
    E|----------------------------|
    B|----------------------------|
    G|12-------------------12⁄(7)-|
    D|12-----10h12p10⁄(7)--12⁄(7)-|
    A|----------------------------|
    E|----------------------------|
    {...............wah...............}
    (Guitar 1)
    
    E|--------------------------------------------------|
    B|--------------------------------------------------|
    G|--------------------------------------------------|
    D|----------7-7-5~--5/7-5---------------55~---------|
    A|7⁄(3)--5h7-------------5h7p5-7⁄(3)-5h7--------5-7-|
    E|-----------------------------------------5-5-7----|
    (Guitar 2/Bass)
    Junior's eyes couldn't disguise the pain
    
    Gm7 Gm7⁄(Am7)
    E|----------------------------|
    B|----------------------------|
    G|12-------------------12⁄(7)-|
    D|12-----10h12p10⁄(7)--12⁄(7)-|
    A|----------------------------|
    E|----------------------------|
    {...............wah...............}
    (Guitar 1)
    
    E|--------------------------------------------------|
    B|--------------------------------------------------|
    G|--------------------------------------------------|
    D|----------7-7-5~--5/7-5---------------55~---------|
    A|7⁄(3)--5h7-------------5h7p5-7⁄(3)-5h7--------5-7-|
    E|-----------------------------------------5-5-7----|
    (Guitar 2/Bass)
    His father was leaving, and Junior was grieving again
    
    Gm7 Gm7⁄(Am7)
    E|----------------------------|
    B|----------------------------|
    G|12-------------------12⁄(7)-|
    D|12-----10h12p10⁄(7)--12⁄(7)-|
    A|----------------------------|
    E|----------------------------|
    {...............wah...............}
    (Guitar 1)
    
    E|--------------------------------------------------|
    B|--------------------------------------------------|
    G|--------------------------------------------------|
    D|----------7-7-5~--5/7-5---------------55~---------|
    A|7⁄(3)--5h7-------------5h7p5-7⁄(3)-5h7--------5-7-|
    E|-----------------------------------------5-5-7----|
    (Guitar 2/Bass)
    Innocent eyes was the man who gave everything
    
    Gm7 Gm7⁄(Am7) Em7
    E|-----------------------------------|
    B|-----------------------------------|
    G|12-------------------12⁄(7)---14~~-|
    D|12-----10h12p10⁄(7)--12⁄(7)---14~~-|
    A|-----------------------------------|
    E|-----------------------------------|
    {...............wah...............}
    (Guitar 1)
    
    E|----------------------------------------------|
    B|----------------------------------------------|
    G|----------------------------------------------|
    D|----------7-7-5~--5/7-5------------7-7--7-7-7-|
    A|7⁄(3)--5h7-------------5h7p5-7⁄(3)------------|
    E|----------------------------------------------|
    (Guitar 2/Bass)
    Junior's sorrow, he knew what tomorrow would bring, yeah!
    
    CHOURSE
    E5 E5 E5 D5 C5 C5 C5 C5
    E|-----------------------------------------------|
    B|-----------------------------------------------|
    G|--9--xx-9-9--9--7--5-5-xx-5-5------------------|
    D|--9--xx-9-9--9--7--5-5-xx-5-5------------------|
    A|--7--xx-7-7--7--5--3-3-xx-3-3--2p0-2~-22/3-2p0-|
    E|0----------------------------------------------|
    (Guitar 1)
    You're coming home again tomorrow.
    
    E|----------------------------------------------------|
    B|----------------------------------------------------|
    G|----------------------------(5/)-9~~~---------------|
    D|----------------------------------------7/9⁄7~------|
    A|-----------------------------------------------5-7~-|
    E|----------------------------------------------------|
    (Guitar 2)
    
    E5 E5 E5 D5 C5 C5 C5 C5
    E|-----------------------------------------------|
    B|-----------------------------------------------|
    G|--9--xx-9-9--9--7--5-5-xx-5-5------------------|
    D|--9--xx-9-9--9--7--5-5-xx-5-5------------------|
    A|--7--xx-7-7--7--5--3-3-xx-3-3--2p0-2~-22/3-2p0-|
    E|0----------------------------------------------|
    (Guitar 1)
    I'm sorry it won't be for long
    
    E|-------------------------------------------------------|
    B|-------------------------------------------------------|
    G|---------------------------9~~~------------------------|
    D|-------------------------------9--7--5---7p5-----------|
    A|---------------------------------------------7-5-5h7~~-|
    E|-------------------------------------------------------|
    (Guitar 2)
    
    E5 E5 E5 D5 C5 C5 C5 C5
    E|-----------------------------------------------|
    B|-----------------------------------------------|
    G|--9--xx-9-9--9--7--5-5-xx-5-5------------------|
    D|--9--xx-9-9--9--7--5-5-xx-5-5------------------|
    A|--7--xx-7-7--7--5--3-3-xx-3-3--2p0-2~-22/3-2p0-|
    E|0----------------------------------------------|
    (Guitar 1)
    With all the pain I've watched you live with in
    
    E|---------------------------------------------------------------|
    B|------------------------------------------------------7-8------|
    G|---------------------------------------------------7-9---9~~~~-|
    D|---------------------------------------------5-7-9-------------|
    A|------------------------------------------5/7------------------|
    E|---------------------------------------------------------------|
    (Guitar 2)
    
    E5 E5 E5 D5 C5 B5 D5
    E|-------------------------------|
    B|-------------------------------|
    G|--9--xx-9-9--9--7--5-5-5--4--7-|
    D|--9--xx-9-9--9--7--5-5-5--4--7-|
    A|--7--xx-7-7--7--5--3-3-3--2--5-|
    E|0------------------------------|
    (Guitar 1)
    I'll try my hardest not to cry when it is time to say good bye.
    
    E|-------------------------------------------------17/20---------------|
    B|-----------------------------------------15-17-19------17~/20~--17~~-|
    G|----------------------------------15/177-----------------------------|
    D|---------------------------------------------------------------------|
    A|---------------------------------------------------------------------|
    E|---------------------------------------------------------------------|
    (Guitar 2)
    
    E5 E5 E5 D5 D5 E5 E5 D5 C5 B5
    E|---------------------------------------------------------|
    B|---------------------------------------------------------|
    G|---9--xx-9-9--9--7--7--------------9--xxx-9-7-5-4--------|
    D|---9--xx-9-9--9--7--7--------------9--xxx-9-7-5-4--------|
    A|---7--xx-7-7--7--5--5--5⁄3--5/7----7--xxx-7-5-3-2--0-2/3-|
    E|0-0----------------------------0-0-----------------------|
    
    E5 E5 E5 D5 D5 E5 E5 D5 C5 B5
    E|--------------------------------------------------|
    B|--------------------------------------------------|
    G|---9--xx-9-9--9--7--7--------------9--xxx-9-7-5-4-|
    D|---9--xx-9-9--9--7--7--------------9--xxx-9-7-5-4-|
    A|---7--xx-7-7--7--5--5--5⁄3--5/7----7--xxx-7-5-3-2-|
    E|0-0----------------------------0-0----------------|
    
    E|-----------------------------------------------------------------------------|
    B|-----------------------------------------------------------------------------|
    G|-----------------------------------------------------------------------------|
    D|-----------------------------------------------------------------------------|
    A|14^(16)---14^(16)---14^(16`14~)-14h16------------------------15-17~~~~~⁄(12)-|
    E|-------14--------14------------------144-16-16^(18-18~-18`16)----------------|
    {..................................wah......................................}
    (Guitar 1)
    
    E|------------------------------------------------------------------|
    B|------------------------------------------------------------------|
    G|-9--9--9--9-xx-8-8-8-8--9--9--9--9--11----9-xx-11--9---9-xx-11--9-|
    D|10-10-10-10-xx-9-9-9-9-10-10-10-10--12---10-xx-12--9--10-xx-12--9-|
    A|10-10-10-10-xx-9-9-9-9-10-10-10-10--12---10-xx-12--7--10-xx-12--7-|
    E|-8--8--8--8-xx-7-7-7-7--8--8--8--8--10----8-xx-10------8-xx-10----|
    {...........................strum................................}
    (Guitar 2 & Guitar 3 Acoustic)
    
    E|------------------------------------------|
    B|--------------------12-15p12--15~~~-------|
    G|-------------14^(16)--------14-----14pp12-|
    D|------------------------------------------|
    A|5-/-7~~~~(⁄3)-----------------------------|
    E|------------------------------------------|
    
    E|-----------------------------------------|
    B|----------15-----------------------------|
    G|---14^(16)--14^(16`14)p12--14^(16`14~)⁄9-|
    D|-14----------------------14--------------|
    A|-----------------------------------------|
    E|-----------------------------------------|
    (Guitar 1)
    
    E|---------------------------------------------------|
    B|---------------------------------------------------|
    G|-9-xx-11--9---9-xx-11--9--9-xx-11--9----9-xx-11--9-|
    D|10-xx-12--9--10-xx-12--9-10-xx-12--9--110-xx-12--9-|
    A|10-xx-12--7--10-xx-12--7-10-xx-12--7--110-xx-12--7-|
    E|-8-xx-10------8-xx-10-----8-xx-10-------8-xx-10----|
    (Guitar 2 & Guitar 3 Acoustic)
    
    E|-----------------------------------------------------------------|
    B|------------------------7^(9)-7^(9)-5-55-------7^(9)-7^(9)-------|
    G|----------------------------------------7~(⁄3)-------------7-7~~-|
    D|--------5-(7/)-9-7~~(⁄5)-----------------------------------------|
    A|(5/)-7~----------------------------------------------------------|
    E|-----------------------------------------------------------------|
    {..................................wah......................................}
    (Guitar 1)
    
    E|---------------------------------------------------|
    B|---------------------------------------------------|
    G|-9-xx-11--9---9-xx-11--9--9-xx-11--9----9-xx-11--9-|
    D|10-xx-12--9--10-xx-12--9-10-xx-12--9--110-xx-12--9-|
    A|10-xx-12--7--10-xx-12--7-10-xx-12--7--110-xx-12--7-|
    E|-8-xx-10------8-xx-10-----8-xx-10-------8-xx-10----|
    (Guitar 2 & Guitar 3 Acoustic)
    
    E|-----------------------------------------------------------------------------|
    B|-----------------------------------------------------------------------------|
    G|4-------------------4-4~~~(⁄2)-4-------------------9-9~~(⁄5)-----------------|
    D|--7-5-5---------5-5--------------7-5-55---------5-9---------------5-5-7-9⁄7~-|
    A|-------(5/)-7-7-------------------------(5/)-7-7------------(5/)-7-----------|
    E|-----------------------------------------------------------------------------|
    {..................................wah........................................}
    (Guitar 1)
    
    E|---------------------------------------------------|
    B|---------------------------------------------------|
    G|-9-xx-11--9---9-xx-11--9--9-xx-11--9----9-xx-11--9-|
    D|10-xx-12--9--10-xx-12--9-10-xx-12--9--110-xx-12--9-|
    A|10-xx-12--7--10-xx-12--7-10-xx-12--7--110-xx-12--7-|
    E|-8-xx-10------8-xx-10-----8-xx-10-------8-xx-10----|
    (Guitar 2 & Guitar 3 Acoustic)
    
    Gm7 Gm7⁄(Am7)
    E|----------------------------|
    B|----------------------------|
    G|12-------------------12⁄(7)-|
    D|12-----10h12p10⁄(7)--12⁄(7)-|
    A|----------------------------|
    E|----------------------------|
    {...............wah...............}
    (Guitar 1)
    
    E|--------------------------------------------------|
    B|--------------------------------------------------|
    G|--------------------------------------------------|
    D|----------7-7-5~--5/7-5---------------55~---------|
    A|7⁄(3)--5h7-------------5h7p5-7⁄(3)-5h7--------5-7-|
    E|-----------------------------------------5-5-7----|
    (Guitar 2/Bass)
    
    E|---------------------------------|
    B|---------------------------------|
    G|---------------------------------|
    D|-------------------5⁄4-----------|
    A|------------------------7--5--7~-|
    E|---------------------------------|
    (Guitar 3) {vp in on each note}
    
    Gm7 Gm7⁄(Am7)
    E|----------------------------|
    B|----------------------------|
    G|12-------------------12⁄(7)-|
    D|12-----10h12p10⁄(7)--12⁄(7)-|
    A|----------------------------|
    E|----------------------------|
    {...............wah...............}
    (Guitar 1)
    
    E|--------------------------------------------------|
    B|--------------------------------------------------|
    G|--------------------------------------------------|
    D|----------7-7-5~--5/7-5---------------55~---------|
    A|7⁄(3)--5h7-------------5h7p5-7⁄(3)-5h7--------5-7-|
    E|-----------------------------------------5-5-7----|
    (Guitar 2/Bass)
    
    E|------------------------------|
    B|-15⁄12------------------------|
    G|--------14⁄12-----------------|
    D|-------------12⁄9-------------|
    A|------------------5-/-7~~(⁄3)-|
    E|------------------------------|
    (Guitar 3)
    
    Gm7 Gm7⁄(Am7)
    E|----------------------------|
    B|----------------------------|
    G|12-------------------12⁄(7)-|
    D|12-----10h12p10⁄(7)--12⁄(7)-|
    A|----------------------------|
    E|----------------------------|
    {...............wah...............}
    (Guitar 1)
    
    E|--------------------------------------------------|
    B|--------------------------------------------------|
    G|--------------------------------------------------|
    D|----------7-7-5~--5/7-5---------------55~---------|
    A|7⁄(3)--5h7-------------5h7p5-7⁄(3)-5h7--------5-7-|
    E|-----------------------------------------5-5-7----|
    (Guitar 2/Bass)
    
    E|-------------------------|
    B|-------------------------|
    G|---------------9~~~~⁄(5)-|
    D|-------------------------|
    A|-------------------------|
    E|-------------------------|
    (Guitar 3) {vp in}
    
    Gm7 Gm7⁄(Am7)
    E|----------------------------|
    B|----------------------------|
    G|12-------------------12⁄(7)-|
    D|12-----10h12p10⁄(7)--12⁄(7)-|
    A|----------------------------|
    E|----------------------------|
    {...............wah...............}
    (Guitar 1)
    
    E|--------------------------------------------------|
    B|--------------------------------------------------|
    G|--------------------------------------------------|
    D|----------7-7-5~--5/7-5---------------55~---------|
    A|7⁄(3)--5h7-------------5h7p5-7⁄(3)-5h7--------5-7-|
    E|-----------------------------------------5-5-7----|
    (Guitar 2)
    
    E|--------------------------------------|
    B|--------------------------------------|
    G|--------9~~~--------------------------|
    D|-----------------------------7p5------|
    A|---------------------------------7~~~-|
    E|--------------------------------------|
    {vp in}
    (Guitar 3)
    
    Gm7 Gm7⁄(Am7)
    E|----------------------------|
    B|----------------------------|
    G|12-------------------12⁄(7)-|
    D|12-----10h12p10⁄(7)--12⁄(7)-|
    A|----------------------------|
    E|----------------------------|
    {...............wah...............}
    (Guitar 1)
    
    E|--------------------------------------------------|
    B|--------------------------------------------------|
    G|--------------------------------------------------|
    D|----------7-7-5~--5/7-5---------------55~---------|
    A|7⁄(3)--5h7-------------5h7p5-7⁄(3)-5h7--------5-7-|
    E|-----------------------------------------5-5-7----|
    (Guitar 2)
    Junior's eyes looked into the skies once more
    
    Gm7 Gm7⁄(Am7)
    E|----------------------------|
    B|----------------------------|
    G|12-------------------12⁄(7)-|
    D|12-----10h12p10⁄(7)--12⁄(7)-|
    A|----------------------------|
    E|----------------------------|
    {...............wah...............}
    (Guitar 1)
    
    E|--------------------------------------------------|
    B|--------------------------------------------------|
    G|--------------------------------------------------|
    D|----------7-7-5~--5/7-5---------------55~---------|
    A|7⁄(3)--5h7-------------5h7p5-7⁄(3)-5h7--------5-7-|
    E|-----------------------------------------5-5-7----|
    (Guitar 2)
    Now he knew well that this life was hell for sure
    
    Gm7 Gm7⁄(Am7)
    E|----------------------------|
    B|----------------------------|
    G|12-------------------12⁄(7)-|
    D|12-----10h12p10⁄(7)--12⁄(7)-|
    A|----------------------------|
    E|----------------------------|
    {...............wah...............}
    (Guitar 1)
    
    E|--------------------------------------------------|
    B|--------------------------------------------------|
    G|--------------------------------------------------|
    D|----------7-7-5~--5/7-5---------------55~---------|
    A|7⁄(3)--5h7-------------5h7p5-7⁄(3)-5h7--------5-7-|
    E|-----------------------------------------5-5-7----|
    (Guitar 2)
    He desperately cried, his finger tips stretched to the stars, yeah
    
    E|----------------------------------------------------------------------------|
    B|---------------------------------------------------14^(16)-14p12------------|
    G|----------------------------------------------------------------14----------|
    D|-------------------------------------------------------------------12-h-14~-|
    A|----------------------------------------------------------------------------|
    E|----------------------------------------------------------------------------|
    (Guitar 3)
    
    Gm7 Gm7⁄(Am7) Em7
    E|-----------------------------------|
    B|-----------------------------------|
    G|12-------------------12⁄(7)---14~~-|
    D|12-----10h12p10⁄(7)--12⁄(7)---14~~-|
    A|-----------------------------------|
    E|-----------------------------------|
    {...............wah...............}
    (Guitar 1)
    
    E|----------------------------------------------|
    B|----------------------------------------------|
    G|----------------------------------------------|
    D|----------7-7-5~--5/7-5------------7-7--7-7-7-|
    A|7⁄(3)--5h7-------------5h7p5-7⁄(3)------------|
    E|----------------------------------------------|
    (Guitar 2/Bass)
    Reaching for reason along with the time in the stars, yeah!
    
    CHOURSE
    E5 E5 E5 D5 C5 C5 C5 C5
    E|-----------------------------------------------|
    B|-----------------------------------------------|
    G|--9--xx-9-9--9--7--5-5-xx-5-5------------------|
    D|--9--xx-9-9--9--7--5-5-xx-5-5------------------|
    A|--7--xx-7-7--7--5--3-3-xx-3-3--2p0-2~-22/3-2p0-|
    E|0----------------------------------------------|
    (Guitar 1)
    You're coming home again tomorrow.
    
    E|-------------------------------------------------------------|
    B|-------------------------------------------------------------|
    G|------------------------------------------7^(9`7)--4---------|
    D|-----------------------------------------------------7-5-----|
    A|---------------------------------------------------------7~~-|
    E|-------------------------------------------------------------|
    (Guitar 2) {.......wah........}
    
    E5 E5 E5 D5 C5 C5 C5 C5
    E|-----------------------------------------------|
    B|-----------------------------------------------|
    G|--9--xx-9-9--9--7--5-5-xx-5-5------------------|
    D|--9--xx-9-9--9--7--5-5-xx-5-5------------------|
    A|--7--xx-7-7--7--5--3-3-xx-3-3--2p0-2~-22/3-2p0-|
    E|0----------------------------------------------|
    (Guitar 1)
    I'm sorry it won't be for long
    
    E|--------------------------------------------------------------------|
    B|-------------------------------------100^(12)⁄9---------------------|
    G|-----------------------------------------------9^(11)⁄7-------------|
    D|--------------------------------------------------------7-5---------|
    A|-----------------------------------------------------------7-5-h-7~-|
    E|--------------------------------------------------------------------|
    (Guitar 2)
    
    E5 E5 E5 D5 C5 C5 C5 C5
    E|-----------------------------------------------|
    B|-----------------------------------------------|
    G|--9--xx-9-9--9--7--5-5-xx-5-5------------------|
    D|--9--xx-9-9--9--7--5-5-xx-5-5------------------|
    A|--7--xx-7-7--7--5--3-3-xx-3-3--2p0-2~-22/3-2p0-|
    E|0----------------------------------------------|
    (Guitar 1)
    With all the pain I've watched you live with in
    
    E|--------------------------------------------------------------|
    B|--------------------------------------------------------------|
    G|--------------------------------------------7/9^(11)⁄7--------|
    D|-------------------------------------------------------7------|
    A|---------------------------------------------------------5-7~-|
    E|--------------------------------------------------------------|
    (Guitar 2)
    
    E5 E5 E5 D5 C5 B5 D5
    E|-------------------------------|
    B|-------------------------------|
    G|--9--xx-9-9--9--7--5-5-5--4--7-|
    D|--9--xx-9-9--9--7--5-5-5--4--7-|
    A|--7--xx-7-7--7--5--3-3-3--2--5-|
    E|0------------------------------|
    (Guitar 1)
    I'll try my hardest not to cry when it is time to say good bye.
    
    E|-------------------------------------------------|
    B|-------------------------------------------------|
    G|-------------------------------------------------|
    D|--------------------------7^(9)--5^(7)-----------|
    A|----------------------------------------5~~--7~~-|
    E|-------------------------------------------------|
    (Guitar 2)
    
    Em7 E5 D Em7 E5 D5 C5 B5
    E|----------------------------------------------------------|
    B|----------------------------------------------------------|
    G|----9⁄(5)-x-9-11---------------9⁄(5)-x--9-7-5-4-----------|
    D|----9⁄(5)-x-9-12---------------9⁄(5)-x--9-7-5-4-----------|
    A|----9⁄(5)-x-7-12-0-3p0-2/3-----9⁄(5)-x--7-5-3-2-0-3p0-2/3-|
    E|0-0-----------10-----------0-0----------------------------|
    (Guitar 1)
    
    Gm7⁄Em7 Gm7⁄Em7
    E|--------------------------------------------------------|
    B|-----------x-8-----------------------------------8------|
    G|---12⁄(9)-----9~--------------12⁄(9)---------4~-7--9-9~-|
    D|---12⁄(9)---------------------12⁄(9)-----5~-7-----------|
    A|-------------------------------------5//7---------------|
    E|0-0-----------------------0-0---------------------------|
    (Guitar 2)
    
    Em7 E5 D Em7 E5 D5 C5 B5
    E|----------------------------------------------------------|
    B|----------------------------------------------------------|
    G|----9⁄(5)-x-9-11---------------9⁄(5)-x--9-7-5-4-----------|
    D|----9⁄(5)-x-9-12---------------9⁄(5)-x--9-7-5-4-----------|
    A|----9⁄(5)-x-7-12-0-3p0-2/3-----9⁄(5)-x--7-5-3-2-0-3p0-2/3-|
    E|0-0-----------10-----------0-0----------------------------|
    (Guitar 1)
    
    E|-------------------------------------------------|
    B|-------------------------------------------------|
    G|-------------------------------------------------|
    D|-7⁄4-4~~~~~~~~~----------4-7-4-4~~~~~~~~~~~~~~~~-|
    A|-------------------------------------------------|
    E|-------------------------------------------------|
    (Guitar 2)
    
    Em7 E5 D Em7 E5 D5 C5 B5
    E|----------------------------------------------------------|
    B|----------------------------------------------------------|
    G|----9⁄(5)-x-9-11---------------9⁄(5)-x--9-7-5-4-----------|
    D|----9⁄(5)-x-9-12---------------9⁄(5)-x--9-7-5-4-----------|
    A|----9⁄(5)-x-7-12-0-3p0-2/3-----9⁄(5)-x--7-5-3-2-0-3p0-2/3-|
    E|0-0-----------10-----------0-0----------------------------|
    (Guitar 1)
    
    E|-------------------------------------------------|
    B|-------------------------------------------------|
    G|~~~~~~~~~4----7---9~~~~~~~~~~~~~~~~~~~~~~~~~~~~~-|
    D|----------7-5------------------------------------|
    A|-------------------------------------------------|
    E|-------------------------------------------------|
    (Guitar 2)
    
    Em7 E5 D Em7 E5 D5 C5 B5
    E|----------------------------------------------------------|
    B|----------------------------------------------------------|
    G|----9⁄(5)-x-9-11---------------9⁄(5)-x--9-7-5-4-----------|
    D|----9⁄(5)-x-9-12---------------9⁄(5)-x--9-7-5-4-----------|
    A|----9⁄(5)-x-7-12-0-3p0-2/3-----9⁄(5)-x--7-5-3-2-0-3p0-2/3-|
    E|0-0-----------10-----------0-0----------------------------|
    (Guitar 1)
    
    E|---------------------------------------------------------------|
    B|------------------15p12---15-17~~~~~-122⁄(9)-15/17-15-12-------|
    G|~~~~~~~~~~~~~~~~~~-----14------------122⁄(9)-------------14p12-|
    D|---------------------------------------------------------------|
    A|---------------------------------------------------------------|
    E|---------------------------------------------------------------|
    (Guitar 2)
    E5 E5 D5 D5 B5 B5 C5 D5 E5 E5 E5
    E|---------------------------------------------------------------|
    B|---------------------------------------------------------------|
    G|9--9--7--7-7-7--4----4--5--7--9--9-9-9--9-9-9-9-9-9-9-9------9-|
    D|9--9--7--7-7-7--4----4--5--7--9--9-9-9--9-9-9-9-9-9-9-9------9-|
    A|7--7--5--5-5-5--2----2--3--5--7--7-7-7--7-7-7-7-7-7-7-7------7-|
    E|0-----------------------------0--0-0-0--0-0-0-0-0-0-0-0------0-|
    (Guitar 1)
    
    E|---|
    B|---|
    G|---|
    D|14-|
    A|---|
    E|---|
    (Guitar 2)
    

    Тональность:

    Нет текста!



    Назад
    Рекомендуем посмотреть другие песни исполнителя «Black Sabbath»:

    • Комментарии Facebook ()
    • Комментарии ВКонтакте



    Добавить в Избранное Браузера
    Сохранить здесь Очистить


    x

    0


    +
    -

    +
    -

    -

    Авторизация





    Зарегистрироваться

    M

    Дата и время

    • 05:09:01
       

    Социальные ссылки


    Наши приложения

    • Muzbank App Play Market
    • Muzbank Amazon App