MUZBANK



A Most Complete Bank Of Music Information

МУЗЫКАЛЬНО-ИНФОРМАЦИОННЫЙ БАНК

Поиск по сайту







    BBlack Sabbath • Laguna Sunrise (tab) (аккорды и текст - chords & lyrics)


    252

    Print

    Видео «Laguna Sunrise (tab) (Black Sabbath)»

    Видео клипы к песне подбираются автоматически сайтом youtube. Возможны некоторые несоответствия клипов песне.

    ↑ Спрятать рекламу ↑



    Download


     
    
    
    Tune down 1 1/2 steps
       
       
      A::
      GUIT 1 [first note an upbeat sixteenth: 1-&-2-duh-duh-duh-duh-dah]
      ---||----------------------------------|------------------------------------|
      ---||----------------------------------|---------------------------------0--|
      ---||o---------------------------------|-----------------------------0-2----|
      ---||o-----2/4-5-42-4================-|-----------------2/4-5-42-4--------|
      ---||----------------------------------|------------------------------------|
      ---||----------------------------------|------------------------------------|
         || [e.] s s s s s h                    [q-e.]         s s s s s s s s s  |
      GUIT 2                                                                      |
         ||  D [up&down "drag" strum]                                             |
      ---||--------2---2=======--------------|---------2---2=======---------------|
      ---||--------3---3=======--------------|---------3---3=======---------------|
      ---||o-------2---2=======--------------|---------2---2=======---------------|
      ---||o--0================------0-------|---0=================------0--------|
      -0-||-----------------------0-----0----|-----------------------0-------0----|
      ---||----------------------------------|------------------------------------|
       e      q    e   e---e      e  e  e        q     e   e-----e   e   e   e
       
       
      [grace note]  
      |--------------------------------------|------------------------------------|
      |----(0h)1-----------------------------|------------------------------------|
      |----------------2---2=================|===2====----------------------------|
      |--------------------------------------|------------------------------------|
      |--------------------------------------|------------------------------------|
      |--------------------------------------|------------------------------------|
      |        q.      e   h---------------------q     [h.]                       |
      |                                                                           |
      |      Dm7                                                                  |
      |------------5---5=======--------------|---------5---5======----------------|
      |------------6---6=======--------------|---------6---6======----------------|
      |------------5---5=======--------------|---------5---5======----------------|
      |--------3===============------3-------|---3================-------0--------|
      |---------------------------0-----0----|-----------------------0-------0----|
      |--------------------------------------|------------------------------------|
               q   e   e---e      e  e  e        q     e   e-----e   e   e   e
       
       
      |--------------------------------------|------------------------------------|
      |--------------------------------------|---------------------------------0--|
      |--------------------------------------|-----------------------------0-2----|
      |----------2/4-5-42-4================-|-----------------2/4-5-42-4--------|
      |--------------------------------------|------------------------------------|
      |--------------------------------------|------------------------------------|
      |     [e.] s s s s s h                    [q-e.]         s s s s s s s s s  |
      |                                                                           |
      |      D                                                                    |
      |------------2---2=======--------------|---------2---2======----------------|
      |------------3---3=======--------------|---------3---3======----------------|
      |------------2---2=======--------------|---------2---2======----------------|
      |-------0================------0-------|---0================-------0--------|
      |---------------------------0-----0----|-----------------------0-------0----|
      |--------------------------------------|------------------------------------|
              q    e   e---e      e  e  e        q     e   e-----e   e   e   e
       
       
      |--------------------------------------|------------------------------------|
      |----(0h)1-----------------------------|------------------------------------|
      |----------------2---2=================|===2====----------------------------|
      |--------------------------------------|------------------------------------|
      |--------------------------------------|------------------------------------|
      |--------------------------------------|------------------------------------|
      |        q.      e   h---------------------q     [h.]                       |
      |                                                             slow gliss sl.|
      |      Dm7                                                          G5      |
      |------------5---5=======--------------|---------5---5==========------------|
      |------------6---6=======--------------|---------6---6==========-----3-----|
      |------------5---5=======--------------|---------5---5==========-----0-----|
      |--------3===============------3-------|---3====================-----5-----|
      |---------------------------0-----0----|-----------------------------------|
      |--------------------------------------|------------------------------------|
               q   e   e---e      e  e  e        q     e   e-q             q
       
       
      ___________________________________________________________________________
      | A1::                                                            -->to A::|
       
      |-------------------------------------|------------------------------------||
      |--------2h3--2p0-----2==============-|--------2h3--2p0-----2=============-||
      |-------------------------------------|-----------------------------------o||
      |-------------------------------------|-----------------------------------o||
      |-------------------------------------|------------------------------------||
      |-------------------------------------|------------------------------------||
      |  [q]   s s  s s     h                  [q]   s s  s s     h              ||
      |                                                                          ||
      |  Asus2                    G5            Asus2                            ||
      |-------------------------------------|------------------------------------||
      |---0=================0------3-------|---0=================0=====---------||
      |---2=================2------0-------|---2=================2=====--------o||
      |---2======---2=======2------5-------|---2======---2=======2=====---*----o||
      |---------0===========0--------------|---------0===========0=====---0-----||
      |-------------------------------------|------------------------------------||
          q     e   e       q      q            q     e   e       q.       e
      
       
       
      A2:: same as A1 ending, but omit *[final open "a" note]; go to B::
       
       
      A3:: repeat & fade on measure 1  of A1:: ending, all the while
            hoping your electric`s in tune for "Supernaut"!...
       
       
      B:: [only GUIT1 shown; GUIT2: play chords as indicated]
       
        C                                    Am
      ||------0---3---1--0h1p0-----0--------|----------------------------------
     

    Тональность:

    Нет текста!



    Назад
    Рекомендуем посмотреть другие песни исполнителя «Black Sabbath»:

    • Комментарии Facebook ()
    • Комментарии ВКонтакте



    Добавить в Избранное Браузера
    Сохранить здесь Очистить


    x

    0


    +
    -

    +
    -

    -

    Авторизация





    Зарегистрироваться

    M

    Дата и время

    • 23:27:15
       

    Социальные ссылки


    Наши приложения

    • Muzbank App Play Market
    • Muzbank Amazon App