MUZBANK



A Most Complete Bank Of Music Information

МУЗЫКАЛЬНО-ИНФОРМАЦИОННЫЙ БАНК

Поиск по сайту







    BBlack Sabbath • Planet Caravan (аккорды и текст - chords & lyrics)


    347

    Print

    Видео «Planet Caravan (Black Sabbath)»

    Видео клипы к песне подбираются автоматически сайтом youtube. Возможны некоторые несоответствия клипов песне.

    ↑ Спрятать рекламу ↑



    Download



    GUITAR [repeat thruout; fade]
    Em(/9) . "DM6/11" [sic: GM7/D]
    
    ||----------------0-------0====-------|------------------------------------||
    ||----------------0-------0====-------|---------------0============--------||
    ||o---------------0-------0====-------|-----------0============---0---2*--o||
    ||o------------5----------4====---2---|-------4============---4====-------o||
    ||---------2--------------------------|--/5============---5========--------||
    ||----0============================---|------------------------------------||
    ||
    ||
    || 1 & 2 & 3 & 4 & 1 & 2 & 3 & 4 &
    ||
    || BASS PART
    ||
    ||--------------------------------7---|------------------------------------||
    ||o---------------------------7h9-----|-------------------(7b)8 r-7---5---o||
    ||o---7-------%---7-------7-----------|---5-------%---5-------------------o||
    ||------------------------------------|------------------------------------||
    ^^^^^^^^^^^^^
    . : staccato (cut short--first Em chord) in Pantera version this arpeggio
    is let ring
    * : slight bend [my own "add"?--as may be "2->4" slide in 1st measure]
    % : eighth-note rest
    r : "return" of bend
    ====: hold tone thru count (legato arpeggio)
    ^^^^: occasional variations at this point (listen to recording)
    
    ________
    LEAD . . .
    
    gliss
    ||-------------------------------------------------------~--------------~----|
    ||------------------------------------------1/4------------------------------|
    ||--------------------------h-p-p----------b---------------------------------|
    ||-4----------------5-7----7-8-7-5---7-5---5--------p-----------5⁄4----------|
    ||----5--7----/7-----------------------------------7-5---7--5/7------5--7⁄---|
    ||---------------------------------------------------------------------------|
    
    |---------------------------------~-------------------------p----------------|
    |--------------------------------------------------------7-8-7--5-7----------|
    |------------------------------------------------------x-------------7⁄6-----|
    |------5-7--8⁄7---8⁄7--8⁄7---5----5-------5-4---------x----------------------|
    |55-5---------------------------7------7-------7------^----------------------|
    |-----------------------------------------------fluid-downstroke-------------|
    
    |------------~--------------p--------------p-----------------p---------------|
    |--p--------------------7--8-7----10---7--8-7--7---10----7--8-7-----7---7----|
    |-7-6--7--------------x---------7----------------------7---------9-----------|
    |----------7⁄4------x--------------------------------------------------------|
    |-------------------^--------------------------------------------------------|
    |-----------------downstroke-------------------------------------------------|
    
    |---p--------------------------------------------------~---------~-----------|
    |--8-7⁄5--7--p-------p-------------------------------------------------------|
    |-----------7-6--7--7-6⁄4--6---p----p--------p-------------------------------|
    |-----------------------------7-5--7-5---4--5-4---4-----------/9-5-----------|
    |-----------------------------------------------5----5/7-(7)⁄----------------|
    |----------------------------------------------------------------------------|
    
    full
    |-----------------------------------------------------b----~-----------------|
    |-----------------------------------------------------8--------------------11|
    |------------------h-p-p-------------------------7-9-------9---(9)⁄/(7)--9---|
    |--5--7---7/8--7--7-8-7-5---7-5----------5--7/8------------------------------|
    |-------------------------------7--(7)⁄--------------------------------------|
    |----------------------------------------------------------------------------|
    
    1/2 full
    |---b---R--p---------------h--p--------------------------b--R~---------------|
    |--10--(10)-8---10----8--10-11-10----(8)-10-----8-10-10--8-(8)--(8)⁄---------|
    |-------------9----9--------------------9-----------------------------/12----|
    |----------------------------------------------------------------------------|
    |----------------------------------------------------------------------------|
    |----------------------------------------------------------------------------|
    
    full
    |-------p------------------p------------------p-----------b~--R--------12----|
    |-15--15-14----------14--14-13---------13---13-11--------10--(10)----x-------|
    |------------15--12------------14--11-------------13-10------------x---------|
    |----------------------------------------------------------------------------|
    |----------------------------------------------------------------------------|
    |---------------------------------------------------------------downstroke---|
    
    b(full) b(full) R full
    |----14-15-17---17--~-------17------(17)---15⁄14---p---15---b-----~----------|
    |------------------------------------------------17-15-----15----(15)--------|
    |----------------------------------------------------------------------------|
    |----------------------------------------------------------------------------|
    |----------------------------------------------------------------------------|
    |----------------------------------------------------------------------------|
    
    1/4
    |--------b---R--p---------~----------------------h-p-h-p-----------~---------|
    |-------15--(15)-12----------------------h------7-8-7-8-7---9----7/9---------|
    |-----x----------------15-14---(14)-----6-7⁄6--------------------------------|
    |---x------------------------------------------------------------------------|
    |----------------------------------------------------------------------------|
    |-downstroke-----------------------------------------------------------------|
    
    
    1⁄2
    |----------------------------------------------------------------------------|
    |-----h-p--------------------------------------------------------------------|
    |----6-7-6-------6-------p--------4------------------------------------------|
    |-------------9-----7---5-4--5/7-----5/7⁄5-----------------------------------|
    |--------------------------------------------b---R-----5----/11--------------|
    |--------------------------------------------5--(5)--3-----------------------|
    
    |--------------------------------------------------------------12----p-------|
    |----------------------h-------12-----12----12----p--p--h--h-------15-12-----|
    |-----------12--14---12-14--15----15-----15-----15-14-12-14-15---------------|
    |-12--14--14--14--14---------------------------------------------------------|
    |---14--14-------------------------------------------------------------------|
    |----------------------------------------------------------------------------|
    
    full full 2 steps 2 steps h h
    |-----------b---12---b---12---b------12----b-------12---~---------17-18-19---|
    |--p--p----15-------15--------15----------15-----------15------x-------------|
    |15-14-12----------------------------------------------------x---------------|
    |----------------------------------------------------------------------------|
    |----------------------------------------------------------------------------|
    |----------------------------------------------------------------------------|
    
    p p p
    |15-14-12---~-----------------17---16-15-----17----------------------------~~|
    |----------15--------------x--------------17----17⁄15---12--15----p----------|
    |------------------------x--------------------------------------15-12---14---|
    |---------------------------------------------------------------------14--14-|
    |----------------------------------------------------------------------------|
    |----------------------------------------------------------------------------|
    
    b 1/2 R p full 1/2
    |-----14-----(14)-12---15-----12---b---------p-----------b----R--p-----------|
    |---x---------------------15-------15----(15)-12-----12-14---(14)-12---------|
    |-x-----------------------------------------------15-------------------------|
    |----------------------------------------------------------------------------|
    |----------------------------------------------------------------------------|
    |----------------------------------------------------------------------------|
    
    1/4
    |------------------~----------~-----------~----------------------------------|
    |----b--R----p-----------------------------------p--------p------------------|
    |---14--(14)--12--14--------(14)------11-------14-12----12-11---11-----------|
    |---------------------------------14------12⁄--------------------------------|
    |----------------------------------------------------------------------------|
    |----------------------------------------------------------------------------|
    
    |----------------------------------------------------------------------------|
    |----------------------------------------------------------------------------|
    |----p------------p----------------------------------------------------------|
    |--14-12⁄11-----12-11-------p------------------------------------12-13-14----|
    |-------------------------14-12⁄10-----------9--10---------12-14-------------|
    |---------------------------------------------------10/12⁄-------------------|
    
    1/2 1/2 b full R
    |----------------------------------~----------------------------17-----(17)--|
    |---------b---R---------------b---R---------------------------x--------------|
    |-12-14--14--(14)---12--14---14--(14)-----12----14----------x----------------|
    |-----------------------------------------------------14---------------------|
    |----------------------------------------------------------------------------|
    |----------------------------------------------------------------------------|
    
    b full R b full R p b 1 1/2 steps
    |--15---17---17-----(17)----15----17---17----(17)--15--17------------------|-|
    |----------------------------------------------------------17--------------|-|
    |--------------------------------------------------------------------------|-|
    |--------------------------------------------------------------------------|-|
    |--------------------------------------------------------------------------|-|
    |--------------------------------------------------------------------------|-|
    

    Тональность:

    Нет текста!



    Назад
    Рекомендуем посмотреть другие песни исполнителя «Black Sabbath»:

    • Комментарии Facebook ()
    • Комментарии ВКонтакте



    Добавить в Избранное Браузера
    Сохранить здесь Очистить


    x

    0


    +
    -

    +
    -

    -

    Авторизация





    Зарегистрироваться

    M

    Дата и время

    • 05:08:31
       

    Социальные ссылки


    Наши приложения

    • Muzbank App Play Market
    • Muzbank Amazon App