MUZBANK



A Most Complete Bank Of Music Information

МУЗЫКАЛЬНО-ИНФОРМАЦИОННЫЙ БАНК

Поиск по сайту







    BBlack Sabbath • Psychophobia (аккорды и текст - chords & lyrics)


    282

    Print

    Видео «Psychophobia (Black Sabbath)»

    Видео клипы к песне подбираются автоматически сайтом youtube. Возможны некоторые несоответствия клипов песне.

    ↑ Спрятать рекламу ↑



    Download



    A5 A5 A5 A5 A5 A5
    E|--------------------------------------------|
    B|-----------------2-2---------------------2--|
    G|-----------------2-2---------------------2--|
    D|-----------------2-2---------------------2--|
    A|-----------------0-0---------------------0--|
    E|2h3p2p0--2h3p2p0-------2h3p2p0--2h3p2p00----|
    
    E|------------------------------------------|
    B|-------------------2-2------------------2-|
    G|-------------------2-2------------------2-|
    D|-------------------2-2------------------2-|
    A|-------------------0-0------------------0-|
    E|-2h3p2p0--2h3p2p0------2h3p2p0--2h3p2p0---|
    
    A5 A5 A5 A5 A5 G5 D
    E|------------------------------------------------------------------------3p0-|
    B|----------------2-2-------------------2-------------------2-2-----------2p0-|
    G|----------------2-2-------------------2-------------------2-2--------0--3p0-|
    D|----------------2-2-------------------2-------------------2-2------0--------|
    A|----------------0-0-------------------0-------------------0-0----2----------|
    E|2h3p2p0-2h3p2p0-----2h3p2p0--2h3p2p00---2h3p2p0--2h3p2p0-------3------------|
    
    A5 A5 A5 A5 A5 A5
    E|-----------------------------------------------------------------------------|
    B|----------------2-2------------------2------------------2-2-----------------2|
    G|----------------2-2------------------2------------------2-2-----------------2|
    D|----------------2-2------------------2------------------2-2-----------------2|
    A|----------------0-0------------------0------------------0-0-----------------0|
    E|2h3p2p0-2h3p2p0-----2h3p2p0-2h3p2p00---2h3p2p0--2h3p2p0-----2h3p2p0--2h3p2p0-|
    Mortal eyes, looking through a veal of dreams, hypnotised, an ever living soul
    with wings
    A5 A5 A5 A5 A5 G5 D5
    E|----------------------------------------------------------------------------|
    B|-----------------2-2-------------------2--------------------2-2-------------|
    G|-----------------2-2-------------------2--------------------2-2--------0----|
    D|-----------------2-2-------------------2--------------------2-2------0----7-|
    A|-----------------0-0-------------------0--------------------0-0----2------5-|
    E|2h3p2p0--2h3p2p0-----2h3p2p0--2h3p2p00----2h3p2p0--2h3p2p0-------3----------|
    Think you're God, but you never had control. Think you're loved, but there's
    no one there at all.
    
    CHOURSE (.28) D arpegio A arpegio
    E|-------------------------------------------------------------------------|
    B|-----------------------------7-------------------------------------------|
    G|----------------------------7------------------2-------------------------|
    D|---------------------------7------------------2--------------------------|
    A|-2------------------------5------------------0---------------------------|
    E|-0----------------------------------------------------3^(4r0)-{Let Ring}-|
    My colour's all run dry, and now I see the world in black and white
    
    D arpegio A arpegio
    E|-------------------------------------------------------------------|
    B|----------------------------------7--------------------------------|
    G|---------------------2p1---------7---------------2-----------------|
    D|------------------2-4---2-------7---------------2------------------|
    A|-------------------------------5---------------0-------------------|
    E|-------------------------------------------------------------(12)⁄-|
    It's too late now, It's time to kiss the Rainbow good bye!
    
    A5 A5 A5 A5 A5 A5
    E|--------------------------------------------|
    B|-----------------2-2---------------------2--|
    G|-----------------2-2---------------------2--|
    D|-----------------2-2---------------------2--|
    A|-----------------0-0---------------------0--|
    E|2h3p2p0--2h3p2p0-------2h3p2p0--2h3p2p00----|
    
    E|------------------------------------------|
    B|-------------------2-2------------------2-|
    G|-------------------2-2------------------2-|
    D|-------------------2-2------------------2-|
    A|-------------------0-0------------------0-|
    E|-2h3p2p0--2h3p2p0------2h3p2p0--2h3p2p0---|
    
    A5 A5 A5 A5 A5 D
    E|--------------------------------------------|
    B|-----------------2-2---------------------2--|
    G|-----------------2-2---------------------2--|
    D|-----------------2-2---------------------2--|
    A|-----------------0-0---------------------0--|
    E|2h3p2p0--2h3p2p0-------2h3p2p0--2h3p2p00----|
    
    E|----------------------------------------2-|
    B|-------------------2-2------------------3-|
    G|-------------------2-2------------------2-|
    D|-------------------2-2--------------------|
    A|-------------------0-0--------------------|
    E|-2h3p2p0--2h3p2p0------2h3p2p0--2h3p2p0---|
    
    A5 A5 A5 A5 A5 A5
    E|--------------------------------------------|
    B|-----------------2-2---------------------2--|
    G|-----------------2-2---------------------2--|
    D|-----------------2-2---------------------2--|
    A|-----------------0-0---------------------0--|
    E|2h3p2p0--2h3p2p0-------2h3p2p0--2h3p2p00----|
    
    E|------------------------------------------|
    B|-------------------2-2------------------2-|
    G|-------------------2-2------------------2-|
    D|-------------------2-2------------------2-|
    A|-------------------0-0------------------0-|
    E|-2h3p2p0--2h3p2p0------2h3p2p0--2h3p2p0---|
    Poison tears running down a palsied face,
    Satan nears, decending on the human race,
    
    A5 A5 A5 A5 A5 G5 D5
    E|--------------------------------------------|
    B|-----------------2-2---------------------2--|
    G|-----------------2-2---------------------2--|
    D|-----------------2-2---------------------2--|
    A|-----------------0-0---------------------0--|
    E|2h3p2p0--2h3p2p0-------2h3p2p0--2h3p2p00----|
    
    E|-----------------------------------|
    B|-------------------2-2-------------|
    G|-------------------2-2--------0----|
    D|-------------------2-2------0----7-|
    A|-------------------0-0----2------5-|
    E|-2h3p2p0--2h3p2p0-------3----------|
    Think you're God, don't you wish you had control. Think you're loved,
    but there's no one there at all.
    
    CHOURSE (1:14) D arpegio A arpegio
    E|-------------------------------------------------------------------------|
    B|-----------------------------7-------------------------------------------|
    G|----------------------------7------------------2-------------------------|
    D|---------------------------7------------------2--------------------------|
    A|-2------------------------5------------------0---------------------------|
    E|-0----------------------------------------------------3^(4r0)-{Let Ring}-|
    My colour's all run dry, and now I see the world in black and white
    
    D arpegio A5 A5 A5 A5
    E|-----------------------------------------------------------------------|
    B|----------------------------------7------------------------------------|
    G|---------------------2p1---------7-------------------------------------|
    D|------------------2-4---2-------7----------------2-----2-----2----2----|
    A|-------------------------------5-----------------0-----0-----0----0----|
    E|-----------------------------------------(12)⁄3----3~---3~-----3~---3~-|
    It's too late now, It's time to kiss the Rainbow good bye!
    
    BRIDGE (1:31)
    E5 D5 E5 E5 D5⁄(Gsus2)
    E|---------------------------------------------------------------------|
    B|---------------------------------------------------------------------|
    G|---------------------------------------------------------------7⁄(3)-|
    D|-------------------------9--7--9----------------------------9--7⁄(3)-|
    A|-------------------------7--5--7----------------------------7--5-----|
    E|3(^4)p0-0-0-0--3^(4)p0-0----------3(^4))p0-0-0-0--3^(4)p0-0----------|
    {..........pm...........} {..........pm...........}
    
    E5 D5 E5 E5 Esus2⁄(Gsus2)
    E|--------------------------------------------------------------------------|
    B|--------------------------------------------------------------------7⁄(3)-|
    G|--------------------------------------------------------------------7⁄(3)-|
    D|-------------------------9-9-7--9-----------------------------------7⁄(3)-|
    A|-------------------------7-7-5--7-----------------------------7-7h9-------|
    E|3(^4)p0-0-0-0--3^(4)p0-0-----------3(^44)p0-0-0-0--3^(4)p0-0--------------|
    {..........pm...........} {..........pm...........}
    
    E5 D5 E5 E5 E5 D5⁄(Gsus2)
    E|-----------------------------------------------------------------------|
    B|-----------------------------------------------------------------------|
    G|-----------------------------------------------------------------7⁄(3)-|
    D|-------------------------9-9-7--9----------------------------9-9-7⁄(3)-|
    A|-------------------------7-7-5--7----------------------------7-7-5-----|
    E|3(^4)p0-0-0-0--3^(4)p0-0----------3(^4))p0-0-0-0--3^(4)p0-0------------|
    {..........pm...........} {..........pm...........}
    Listen to the wind, hear the Gospel blow
    
    E5 D5 E5 E5 Esus2⁄(Gsus2)
    E|--------------------------------------------------------------------------|
    B|--------------------------------------------------------------------7⁄(3)-|
    G|--------------------------------------------------------------------7⁄(3)-|
    D|-------------------------9-9-7--9-----------------------------------7⁄(3)-|
    A|-------------------------7-7-5--7-----------------------------7-7h9-------|
    E|3(^4)p0-0-0-0--3^(4)p0-0-----------3(^44)p0-0-0-0--3^(4)p0-0--------------|
    {..........pm...........} {..........pm...........}
    Tell me that you don't hear what I hearin' and I will let you go
    
    E5 D5 E5 E5 E5 D5⁄(Gsus2)
    E|-----------------------------------------------------------------------|
    B|-----------------------------------------------------------------------|
    G|-----------------------------------------------------------------7⁄(3)-|
    D|-------------------------9-9-7--9----------------------------9-9-7⁄(3)-|
    A|-------------------------7-7-5--7----------------------------7-7-5-----|
    E|3(^4)p0-0-0-0--3^(4)p0-0----------3(^4))p0-0-0-0--3^(4)p0-0------------|
    {..........pm...........} {..........pm...........}
    Look up to the skies, put your trust in me
    
    E5 D5 E5 E5 Esus2⁄(Gsus2)
    E|--------------------------------------------------------------------------|
    B|--------------------------------------------------------------------7⁄(3)-|
    G|--------------------------------------------------------------------7⁄(3)-|
    D|-------------------------9-9-7--9-----------------------------------7⁄(3)-|
    A|-------------------------7-7-5--7-----------------------------7-7h9-------|
    E|3(^4)p0-0-0-0--3^(4)p0-0-----------3(^44)p0-0-0-0--3^(4)p0-0--------------|
    {..........pm...........} {..........pm...........}
    Tell me that you ain't feelin' what I'm fellin' and I will set you free
    
    CHOURSE/BRIDGE (1:59)
    
    E5 E5 D arpegio A5 A5 A5 A5
    E|----------------------------------------------------------------|
    B|-----------------------------7----------------------------------|
    G|----------------------------7-----------------------------------|
    D|---------------------------7--------------2-----2-----2----2----|
    A|-2--2---------------------5---------------0-----0-----0----0----|
    E|-0--0----------------------------(12)⁄33----3~---3~-----3~---3~-|
    Alright!
    
    E5 D5 E5 E5 D5⁄(Gsus2)
    E|---------------------------------------------------------------------|
    B|---------------------------------------------------------------------|
    G|---------------------------------------------------------------7⁄(3)-|
    D|-------------------------9--7--9----------------------------9--7⁄(3)-|
    A|-------------------------7--5--7----------------------------7--5-----|
    E|3(^4)p0-0-0-0--3^(4)p0-0----------3(^4))p0-0-0-0--3^(4)p0-0----------|
    {..........pm...........} {..........pm...........}
    
    E5 D5 E5 E5 Esus2⁄(Gsus2)
    E|--------------------------------------------------------------------------|
    B|--------------------------------------------------------------------7⁄(3)-|
    G|--------------------------------------------------------------------7⁄(3)-|
    D|-------------------------9-9-7--9-----------------------------------7⁄(3)-|
    A|-------------------------7-7-5--7-----------------------------7-7h9-------|
    E|3(^4)p0-0-0-0--3^(4)p0-0-----------3(^44)p0-0-0-0--3^(4)p0-0--------------|
    {..........pm...........} {..........pm...........}
    
    E5 D5 E5 E5 E5 D5⁄(Gsus2)
    E|-----------------------------------------------------------------------|
    B|-----------------------------------------------------------------------|
    G|-----------------------------------------------------------------7⁄(3)-|
    D|-------------------------9-9-7--9----------------------------9-9-7⁄(3)-|
    A|-------------------------7-7-5--7----------------------------7-7-5-----|
    E|3(^4)p0-0-0-0--3^(4)p0-0----------3(^4))p0-0-0-0--3^(4)p0-0------------|
    {..........pm...........} {..........pm...........}
    Look into the flame, see the embers glow
    
    E5 D5 E5 E5 Esus2⁄(Gsus2)
    E|--------------------------------------------------------------------------|
    B|--------------------------------------------------------------------7⁄(3)-|
    G|--------------------------------------------------------------------7⁄(3)-|
    D|-------------------------9-9-7--9-----------------------------------7⁄(3)-|
    A|-------------------------7-7-5--7-----------------------------7-7h9-------|
    E|3(^4)p0-0-0-0--3^(4)p0-0-----------3(^44)p0-0-0-0--3^(4)p0-0--------------|
    {..........pm...........} {..........pm...........}
    Tell me that you don't see what I seein' and I will let you go
    
    E5 D5 E5 E5 E5 D5⁄(Gsus2)
    E|-----------------------------------------------------------------------|
    B|-----------------------------------------------------------------------|
    G|-----------------------------------------------------------------7⁄(3)-|
    D|-------------------------9-9-7--9----------------------------9-9-7⁄(3)-|
    A|-------------------------7-7-5--7----------------------------7-7-5-----|
    E|3(^4)p0-0-0-0--3^(4)p0-0----------3(^4))p0-0-0-0--3^(4)p0-0------------|
    {..........pm...........} {..........pm...........}
    Taste the Holy Blood, running through my veins
    
    E5 D5 E5 E5 Esus2⁄(Gsus2)
    E|--------------------------------------------------------------------------|
    B|--------------------------------------------------------------------7⁄(3)-|
    G|--------------------------------------------------------------------7⁄(3)-|
    D|-------------------------9-9-7--9-----------------------------------7⁄(3)-|
    A|-------------------------7-7-5--7-----------------------------7-7h9-------|
    E|3(^4)p0-0-0-0--3^(4)p0-0-----------3(^44)p0-0-0-0--3^(4)p0-0--------------|
    {..........pm...........} {..........pm...........}
    Tell me that you don't feel what I'm fellin' and I'll take away the pain
    
    CHOURSE (2:35) D arpegio A arpegio
    E|--------------------------------------------------------------|
    B|-----------------------------7--------------------------------|
    G|----------------------------7------------------2--------------|
    D|---------------------------7------------------2---------------|
    A|-2------------------------5------------------0----------------|
    E|-0----------------------------------------------------3^(4r0)-|
    Yes I will, now Oh yes I will, ohh, ohh, ohh
    
    D arpegio A5 arpegio
    E|--------------------------------------------------|
    B|----------------------------------7---------------|
    G|---------------------2p1---------7--------------2-|
    D|------------------2-4---2-------7--------------2--|
    A|-------------------------------5--------------0---|
    E|--------------------------------------------------|
    Ohh, ohh It's time to kiss the Rainbow good bye!
    
    A5 A5 A5 A5 A5 A5
    E|--------------------------------------------|
    B|-----------------2-2---------------------2--|
    G|-----------------2-2---------------------2--|
    D|-----------------2-2---------------------2--|
    A|-----------------0-0---------------------0--|
    E|2h3p2p0--2h3p2p0-------2h3p2p0--2h3p2p00----|
    
    E|------------------------------------------|
    B|-------------------2-2------------------2-|
    G|-------------------2-2------------------2-|
    D|-------------------2-2------------------2-|
    A|-------------------0-0------------------0-|
    E|-2h3p2p0--2h3p2p0------2h3p2p0--2h3p2p0---|
    
    A5 A5 A5 A5 A5 G5 D
    E|----------------------------------------------------------------------------|
    B|-----------------2-2--------------------2-------------------2-2-------------|
    G|-----------------2-2--------------------2-------------------2-2--------0--7-|
    D|-----------------2-2--------------------2-------------------2-2------0----7-|
    A|-----------------0-0--------------------0-------------------0-0----2------5-|
    E|2h3p2p0--2h3p2p0------2h3p2p0--2h3p2p00---2h3p2p0--2h3p2p0-------3----------|
    

    Тональность:

    Нет текста!



    Назад
    Рекомендуем посмотреть другие песни исполнителя «Black Sabbath»:

    • Комментарии Facebook ()
    • Комментарии ВКонтакте



    Добавить в Избранное Браузера
    Сохранить здесь Очистить


    x

    0


    +
    -

    +
    -

    -

    Авторизация





    Зарегистрироваться

    M

    Дата и время

    • 07:00:15
       

    Социальные ссылки


    Наши приложения

    • Muzbank App Play Market
    • Muzbank Amazon App