MUZBANK



A Most Complete Bank Of Music Information

МУЗЫКАЛЬНО-ИНФОРМАЦИОННЫЙ БАНК

Поиск по сайту







    BBlack Sabbath • St. Vitus` Dance (аккорды и текст - chords & lyrics)


    274

    Print

    Видео «St. Vitus` Dance (Black Sabbath)»

    Видео клипы к песне подбираются автоматически сайтом youtube. Возможны некоторые несоответствия клипов песне.

    ↑ Спрятать рекламу ↑



    Download


    [f]
    E|------------------------------------------------|
    B|-------7------------------------------------7-7-|
    G|-------7--7^(9`7)--7~--------------------7--7-7-|
    D|(7)----7---------9----------------------7--7-7--|
    A|-5-------------------5^(6)-7^(8-8`7)-5---5------|
    E|------------------------------------------------|
    
    E|---------------------------------------|
    B|---------------------------------------|
    G|-(11)-11-12p11-11-11-------------------|
    D|-(0)-0---0--0--0--0--------------------|
    A|---------------------5^(6)-7^(8-8`7)-5-|
    E|---------------------------------------|
    
    E|------------------------------------------------|
    B|-----7-----------------------------------7--7-7-|
    G|-----7--7-7^(9`7)--7~--------------------7--7-7-|
    D|(7)--7-----------9----------------------7--7-7--|
    A|-5-------------------5^(6)-7^(8-8`7)-5---5------|
    E|------------------------------------------------|
    
    E|---------------------------------------|
    B|---------------------------------------|
    G|-(11)-11-12p11-11-11-------------------|
    D|-(0)-0---0--0--0--0--------------------|
    A|---------------------5^(6)-7^(8-8`7)-5-|
    E|---------------------------------------|
    
    {72 beat/min. feel}
    D D D C C F⁄E F/G
    E|---------------------------------------------|
    B|---------------------------------------------|
    G|---------------------------------------------|
    D|---------------------------------------------|
    A|----12---12-12------10-10------15⁄14--115/17-|
    E|(0)-10---10-10--(0)--8--8--(0)-13⁄12--113/15-|
    {.............slight pm.....................}
    
    D D D C C F⁄E F/G
    E|---------------------------------------------|
    B|---------------------------------------------|
    G|---------------------------------------------|
    D|---------------------------------------------|
    A|----12---12-12------10-10------15⁄14--115/17-|
    E|(0)-10---10-10--(0)--8--8--(0)-13⁄12--113/15-|
    {.............slight pm.....................}
    So you think you know what's going on
    
    D D D C C F⁄E F/G
    E|---------------------------------------------|
    B|---------------------------------------------|
    G|---------------------------------------------|
    D|---------------------------------------------|
    A|----12---12-12------10-10------15⁄14--115/17-|
    E|(0)-10---10-10--(0)--8--8--(0)-13⁄12--113/15-|
    {.............slight pm.....................}
    inside her head
    
    D D D C C F⁄E F/G
    E|---------------------------------------------|
    B|---------------------------------------------|
    G|---------------------------------------------|
    D|---------------------------------------------|
    A|----12---12-12------10-10------15⁄14--115/17-|
    E|(0)-10---10-10--(0)--8--8--(0)-13⁄12--113/15-|
    {.............slight pm.....................}
    You think she wants your money but it's you
    
    D D D C C F⁄E F/G
    E|---------------------------------------------|
    B|---------------------------------------------|
    G|---------------------------------------------|
    D|---------------------------------------------|
    A|----12---12-12------10-10------15⁄14--115/17-|
    E|(0)-10---10-10--(0)--8--8--(0)-13⁄12--113/15-|
    {.............slight pm.....................}
    she wants instead
    
    {144 beats/min. feel}
    E|------------------------------------------------|
    B|-------7------------------------------------7-7-|
    G|-------7--7^(9`7)--7~--------------------7--7-7-|
    D|(7)----7---------9----------------------7--7-7--|
    A|-5-------------------5^(6)-7^(8-8`7)-5---5------|
    E|------------------------------------------------|
    
    E|---------------------------------------|
    B|---------------------------------------|
    G|-(11)-11-12p11-11-11-------------------|
    D|-(0)-0---0--0--0--0--------------------|
    A|---------------------5^(6)-7^(8-8`7)-5-|
    E|---------------------------------------|
    
    E|------------------------------------------------|
    B|-----7-----------------------------------7--7-7-|
    G|-----7--7-7^(9`7)--7~--------------------7--7-7-|
    D|(7)--7-----------9----------------------7--7-7--|
    A|-5-------------------5^(6)-7^(8-8`7)-5---5------|
    E|------------------------------------------------|
    
    E|---------------------------------|
    B|---------------------------------|
    G|-7-7^(9`7)--7~-------------------|
    D|---------9-----------------------|
    A|---------------5^(6)-7^(8-8`7)-5-|
    E|---------------------------------|
    
    {72 beat/min. feel}
    D D D C C F⁄E F/G
    E|---------------------------------------------|
    B|---------------------------------------------|
    G|---------------------------------------------|
    D|---------------------------------------------|
    A|----12---12-12------10-10------15⁄14--115/17-|
    E|(0)-10---10-10--(0)--8--8--(0)-13⁄12--113/15-|
    {.............slight pm.....................}
    
    D D D C C F⁄E F/G
    E|---------------------------------------------|
    B|---------------------------------------------|
    G|---------------------------------------------|
    D|---------------------------------------------|
    A|----12---12-12------10-10------15⁄14--115/17-|
    E|(0)-10---10-10--(0)--8--8--(0)-13⁄12--113/15-|
    {.............slight pm.....................}
    
    D D D C C F⁄E F/G
    E|---------------------------------------------|
    B|---------------------------------------------|
    G|---------------------------------------------|
    D|---------------------------------------------|
    A|----12---12-12------10-10------15⁄14--115/17-|
    E|(0)-10---10-10--(0)--8--8--(0)-13⁄12--113/15-|
    {.............slight pm.....................}
    When you think about the things she
    
    D D D C C F⁄E F/G
    E|---------------------------------------------|
    B|---------------------------------------------|
    G|---------------------------------------------|
    D|---------------------------------------------|
    A|----12---12-12------10-10------15⁄14--115/17-|
    E|(0)-10---10-10--(0)--8--8--(0)-13⁄12--113/15-|
    {.............slight pm.....................}
    did long ago
    
    D D D C C F⁄E F/G
    E|---------------------------------------------|
    B|---------------------------------------------|
    G|---------------------------------------------|
    D|---------------------------------------------|
    A|----12---12-12------10-10------15⁄14--115/17-|
    E|(0)-10---10-10--(0)--8--8--(0)-13⁄12--113/15-|
    {.............slight pm.....................}
    It breaks your heart but you don't mourn
    
    D D D C C F⁄E F/G
    E|---------------------------------------------|
    B|---------------------------------------------|
    G|---------------------------------------------|
    D|---------------------------------------------|
    A|----12---12-12------10-10------15⁄14--115/17-|
    E|(0)-10---10-10--(0)--8--8--(0)-13⁄12--113/15-|
    {.............slight pm.....................}
    You know it's hurts to go
    
    {144 beats/min. feel}
    E|------------------------------------------------|
    B|-------7------------------------------------7-7-|
    G|-------7--7^(9`7)--7~--------------------7--7-7-|
    D|(7)----7---------9----------------------7--7-7--|
    A|-5-------------------5^(6)-7^(8-8`7)-5---5------|
    E|------------------------------------------------|
    
    E|---------------------------------------|
    B|---------------------------------------|
    G|-(11)-11-12p11-11-11-------------------|
    D|-(0)-0---0--0--0--0--------------------|
    A|---------------------5^(6)-7^(8-8`7)-5-|
    E|---------------------------------------|
    
    E|------------------------------------------------|
    B|-------7------------------------------------7-7-|
    G|-------7--7^(9`7)--7~--------------------7--7-7-|
    D|(7)----7---------9----------------------7--7-7--|
    A|-5-------------------5^(6)-7^(8-8`7)-5---5------|
    E|------------------------------------------------|
    
    E|---------------------------------------|
    B|---------------------------------------|
    G|-(11)-11-12p11-11-11-------------------|
    D|-(0)-0---0--0--0--0--------------------|
    A|---------------------5^(6)-7^(8-8`7)-5-|
    E|---------------------------------------|
    
    {72 beat/min. feel}
    B B B A A F#/A B B B A A F#/A
    E|-----------------------------------------------------|
    B|-----------------------------------------------------|
    G|-----------------------------------------------------|
    D|-----------------------------------------------------|
    A|9--9-9------7-7------4/7---9--9-9-------7-7------4/7-|
    E|7--7-7--(0)-5-5--(0)-2/5---7--7-7--(0)--5-5--(0)-2/5-|
    
    B B B A A F#/A B B B A A F#/A
    E|-----------------------------------------------------|
    B|-----------------------------------------------------|
    G|-----------------------------------------------------|
    D|-----------------------------------------------------|
    A|9--9-9------7-7------4/7---9--9-9-------7-7------4/7-|
    E|7--7-7--(0)-5-5--(0)-2/5---7--7-7--(0)--5-5--(0)-2/5-|
    You feel your nerves are shattering, you feel you want to die
    
    B B B A A F#/A B B B A A F#/A
    E|-----------------------------------------------------------|
    B|-----------------------------------------------------------|
    G|-----------------------------------------------------------|
    D|-----------------------------------------------------------|
    A|9--9-9------7-7------4/7---9--9-9-------7-7------4/7-------|
    E|7--7-7--(0)-5-5--(0)-2/5---7--7-7--(0)--5-5--(0)-2/5/(9⁄7)-|
    Just because the one mistake of (???) your life
    
    E|------------------------------------------------|
    B|-------7------------------------------------7-7-|
    G|-------7--7^(9`7)--7~--------------------7--7-7-|
    D|(7)----7---------9----------------------7--7-7--|
    A|-5-------------------5^(6)-7^(8-8`7)-5---5------|
    E|------------------------------------------------|
    
    E|---------------------------------------|
    B|---------------------------------------|
    G|-(11)-11-12p11-11-11-------------------|
    D|-(0)-0---0--0--0--0--------------------|
    A|---------------------5^(6)-7^(8-8`7)-5-|
    E|---------------------------------------|
    
    E|------------------------------------------------|
    B|-------7------------------------------------7-7-|
    G|-------7--7^(9`7)--7~--------------------7--7-7-|
    D|(7)----7---------9----------------------7--7-7--|
    A|-5-------------------5^(6)-7^(8-8`7)-5---5------|
    E|------------------------------------------------|
    
    E|---------------------------------------|
    B|---------------------------------------|
    G|-(11)-11-12p11-11-11-------------------|
    D|-(0)-0---0--0--0--0--------------------|
    A|---------------------5^(6)-7^(8-8`7)-5-|
    E|---------------------------------------|
    
    {72 beat/min. feel}
    D D D C C F⁄E F/G
    E|---------------------------------------------|
    B|---------------------------------------------|
    G|---------------------------------------------|
    D|---------------------------------------------|
    A|----12---12-12------10-10------15⁄14--115/17-|
    E|(0)-10---10-10--(0)--8--8--(0)-13⁄12--113/15-|
    {.............slight pm.....................}
    
    D D D C C F⁄E F/G
    E|---------------------------------------------|
    B|---------------------------------------------|
    G|---------------------------------------------|
    D|---------------------------------------------|
    A|----12---12-12------10-10------15⁄14--115/17-|
    E|(0)-10---10-10--(0)--8--8--(0)-13⁄12--113/15-|
    {.............slight pm.....................}
    
    D D D C C F⁄E F/G
    E|---------------------------------------------|
    B|---------------------------------------------|
    G|---------------------------------------------|
    D|---------------------------------------------|
    A|----12---12-12------10-10------15⁄14--115/17-|
    E|(0)-10---10-10--(0)--8--8--(0)-13⁄12--113/15-|
    {.............slight pm.....................}
    If I were you I'd try again and
    
    D D D C C F⁄E F/G
    E|---------------------------------------------|
    B|---------------------------------------------|
    G|---------------------------------------------|
    D|---------------------------------------------|
    A|----12---12-12------10-10------15⁄14--115/17-|
    E|(0)-10---10-10--(0)--8--8--(0)-13⁄12--113/15-|
    {.............slight pm.....................}
    try to make amends
    
    D D D C C F⁄E F/G
    E|---------------------------------------------|
    B|---------------------------------------------|
    G|---------------------------------------------|
    D|---------------------------------------------|
    A|----12---12-12------10-10------15⁄14--115/17-|
    E|(0)-10---10-10--(0)--8--8--(0)-13⁄12--113/15-|
    {.............slight pm.....................}
    She only thinks of you, you know
    
    D D D C C F⁄E F/G
    E|---------------------------------------------|
    B|---------------------------------------------|
    G|---------------------------------------------|
    D|---------------------------------------------|
    A|----12---12-12------10-10------15⁄14--115/17-|
    E|(0)-10---10-10--(0)--8--8--(0)-13⁄12--113/15-|
    {.............slight pm.....................}
    I'm talking as a friend
    
    {144 beats/min. feel}
    E|------------------------------------------------|
    B|-------7------------------------------------7-7-|
    G|-------7--7^(9`7)--7~--------------------7--7-7-|
    D|(7)----7---------9----------------------7--7-7--|
    A|-5-------------------5^(6)-7^(8-8`7)-5---5------|
    E|------------------------------------------------|
    
    E|---------------------------------------|
    B|---------------------------------------|
    G|-(11)-11-12p11-11-11-------------------|
    D|-(0)-0---0--0--0--0--------------------|
    A|---------------------5^(6)-7^(8-8`7)-5-|
    E|---------------------------------------|
    
    E|------------------------------------------------|
    B|-------7------------------------------------7-7-|
    G|-------7--7^(9`7)--7~--------------------7--7-7-|
    D|(7)----7---------9----------------------7--7-7--|
    A|-5-------------------5^(6)-7^(8-8`7)-5---5------|
    E|------------------------------------------------|
    
    E|---------------------------------------|
    B|---------------------------------------|
    G|-(11)-11-12p11-11-11-----------------7-|
    D|-(0)-0---0--0--0--0-----------------7--|
    A|---------------------5^(6)-7^(8-8`7)-5-|
    E|---------------------------------------|
    

    Тональность:

    Нет текста!



    Назад
    Рекомендуем посмотреть другие песни исполнителя «Black Sabbath»:

    • Комментарии Facebook ()
    • Комментарии ВКонтакте



    Добавить в Избранное Браузера
    Сохранить здесь Очистить


    x

    0


    +
    -

    +
    -

    -

    Авторизация





    Зарегистрироваться

    M

    Дата и время

    • 19:42:06
       

    Социальные ссылки


    Наши приложения

    • Muzbank App Play Market
    • Muzbank Amazon App