MUZBANK



A Most Complete Bank Of Music Information

МУЗЫКАЛЬНО-ИНФОРМАЦИОННЫЙ БАНК

Поиск по сайту







    BBlack Sabbath • The Thrill Of It All (аккорды и текст - chords & lyrics)


    311

    Print

    Видео «The Thrill Of It All (Black Sabbath)»

    Видео клипы к песне подбираются автоматически сайтом youtube. Возможны некоторые несоответствия клипов песне.

    ↑ Спрятать рекламу ↑



    Download



    --------------------------------------------------------------------------
    --------------------------------------------------------------------------
    ----------2-2-4-----------2--2-(4⁄2)---------2-2-4----------4-4-(4-4⁄2)---
    ----------2-2-4-----------2--2-(4⁄2)---------2-2-4----------4-4-(4-4⁄2)---
    -0h2h4----0-0-2--0h2h4----0--0-(2)---0h2h4---0-0-2--0h2h4---2-2-(2-2)-----
    -------2---------------2-------------------2--------------2---------------
    Guitar 1
    {bass}
    -------------------------------------------------2{let ring and fade out}-
    --------------------------------------------------------------------------
    ------------------------------------7/..........16------------------------
    ------------------------------------7/..........16------------------------
    ------------------------------------7/..........16------------------------
    --------------------------------------------------------------------------
    Guitar 2 {delay on} {slow slide!}
    
    ----------------------------------------14-----14------5------5-----------
    ----------------------------------------17^(19)17^(19)-8^(10)-8^(10)------
    --------------------------------------------------------------------------
    --------------------------------------------------------------------------
    --------------------------------------------------------------------------
    --------------------------------------------------------------------------
    Guitar 3
    __________________________________________________________________________
    
    --------------------------------------------------------------------------
    --------------------------------------------------------------------------
    ---------2-2-4----------4-4-(4-4⁄2)---------2-2-4----------4-4-(4-4⁄2)----
    ---------2-2-4----------4-4-(4-4⁄2)---------2-2-4----------4-4-(4-4⁄2)----
    -0h2h4---0-0-2--0h2h4---2-2-(2-2)---0h2h4---0-0-2--0h2h4---2-2-(2-2)------
    -------2--------------2-------------------2--------------2----------------
    Guitar 1
    
    -------------------------------------------------2{let ring and fade}------
    ---------------------------------------------------------------------------
    ------------------------------------7/..........16-------------------------
    ------------------------------------7/..........16-------------------------
    ------------------------------------7/..........16-------------------------
    ---------------------------------------------------------------------------
    Guitar 2
    
    -----14-----14------5-----5-------------14------14------5-----5-----------
    -----17^(19)17^(19)-8^(10)8^(10)--------17^(19)-17^(19)-8^(10)8^(10)------
    --------------------------------------------------------------------------
    --------------------------------------------------------------------------
    --------------------------------------------------------------------------
    --------------------------------------------------------------------------
    Guitar 3
    __________________________________________________________________________
    
    -7-------7-------7-------7-------7-------7-------7-10-10p7---7-10-10p7----
    -10^(12)-10^(12)-10^(12)-10^(12)-10^(12)-10^(12)----------10----------10--
    --------------------------------------------------------------------------
    --------------------------------------------------------------------------
    --------------------------------------------------------------------------
    --------------------------------------------------------------------------
    Guitar 1 {1st lead break}
    
    -7-10-10p7----------------------7-----------------------------------------
    ----------10p7-----------------7--10p7--------------7------7--------------
    --------------9-7-9p7--7-9^(11)-------9-7-9p7--7--9-9^(11)-9^(11)-9p7-----
    ---------------------9-----------------------9--9--------------------9----
    --------------------------------------------------------------------------
    --------------------------------------------------------------------------
    
    -----------------------------------------------------------------
    ------------------------7^(8)--77-----------------12-15-15p12----
    ------------------------7^(8)--77-------12h14^(16)-----------14--
    -9p7-7-9-9-(7)h9p7--7-9------9-----12h14-------------------------
    ----9-------------9----------------------------------------------
    -----------------------------------------------------------------
    
    --------------------------------------------------------------------------
    -12-15-15p12---12-15-15p12---12-15-15p12---12h15--12h15--12h15--12h15-----
    ------------14------------14------------14------14-----14-----14-----14---
    --------------------------------------------------------------------------
    --------------------------------------------------------------------------
    --------------------------------------------------------------------------
    (trill)
    ----------------------------------------7-(7)-7h10p7h10p7h10p7h10p7h10p7h-
    -12h15--12h15--12h15--12-15^(17`15~)--------------------------------------
    ------14-----14-----14----------------------------------------------------
    --------------------------------------------------------------------------
    --------------------------------------------------------------------------
    --------------------------------------------------------------------------
    (trill)
    -10------------------------------------------7----------------------------
    ---7-(7)-7h10p7h10p7h10p7h10p710p710p7------7-10p7----------------------7-
    --------------------------------------9^(11)------9-7-9p7-7-7------------9
    ---------------------------------------------------------9----9-9-9-9p7---
    -----------------------------------------------------------------------9--
    --------------------------------------------------------------------------
    
    ------
    ------
    -12⁄9-
    -12⁄9-
    -12⁄9-
    ------
    
    -----------------------------------------------------------------
    -----------------------------------------------------------------
    -6-5-6-8-10-12-8--------6-5-6-10-12-8--------6-5-6-10-12-8-------
    -7-6-7-9-11-13-9--------7-6-7-11-13-9--------7-6-7-11-13-9-------
    -7-6-7-9-11-13-9{strum}-7-6-7-11-13-9{strum}-7-6-7-11-13-9{strum}
    -5-4-5-7--9-11-7--------5-4-5--9-11-7--------5-4-5--9-11-7-------
    Guitar 2 {delay off} (played 4x during the 1st lead break)
    
    -----------------------
    -----------------------
    -6-5-6-8-10-12-8-------
    -7-6-7-9-11-13-9-------
    -7-6-7-9-11-13-9{strum}
    -5-4-5-7--9-11-7-------
    
    ___________________________________________________________________________
    
    ---------------------------------------------------------------------------
    ---------------------------------------------------------------------------
    -77777-6-8----77777-6-8-10⁄9-10⁄9---77777-6-8----77777-6-8-----------------
    -77777-7-9----77777-7-9-10⁄9-10⁄9---77777-7-9----77777-7-9-----------------
    -55555-7-9--0-55555-7-9--8⁄7--8⁄7-0-55555-7-9--0-55555-7-9-----------------
    -------5-7----------5-7-------------------5-7----------5-7-----------------
    (Guitar 2 rythm)
    Yeah {whisper} say it
    
    Inclination of direction, walk the turn and twisted rift
    With the children of creation, furturistic dreams we sift.
    Clutching violently we whisper with a liquifying cry
    And the deadly final answers we are surely doomed to die.
    
    {Guitar 2 Rythm 2x}
    
    Won't you help me Mr. Jesus? Won't you tell me if you can,
    When you see this world we live in, do you still believe in man?
    If my songs become my freedom, and my freedom turns to gold,
    Then I'll ask the final question, is the answer bought and sold?
    
    {Guitar 2 rythm 2x}
    ____________________________________________________________________________
    
    -----------------------------------------------------
    -----------------------------------------------------
    -----------------------------------------------------
    -2--0-2-4-0--------2--0-2-4-0--------0--2-0-4-2------
    ------------2--0-2------------2--0-2------------5-3--
    -----------------------------------------------------
    Guitar1
    ----------------------------99-99---
    ----------------------------99-99---
    -8---(xx)-8--88--8----------99-99---
    -9---(xx)-7--77--9----------88-88---
    -9---(xx)-7--77--9----------99-99--- {Play 2x}
    -7---(xx)-5--55--7------------------
    Guitar 2 ^^up strokes
    ------------------------------------
    ----------------2h4-4-2-------------
    -4----2---2~-2h4--------4-2--------- {Play 2x with rythm above}
    --------4---------------------------
    ------------------------------------
    ------------------------------------
    Keyboard, but a filler for Guitar 1. Helps round out the rythm!
    
    {Lyrics with the rythm above}
    
    Well, that's my story and I'm sticking to it,
    'Cause I've got no reason to lie, yeah.
    Forget your problems that don't even exist
    And I'll show you a way to get high.
    
    Oh yeah Oh yeah Oh yeah Oh yeah
    
    So come alive you know you matter to me
    Remember freedom is not hard to find, yeah
    Time to stop all your messin' around
    Don't you think I know own mind?
    
    -------------------------------
    -------------------------------
    -------------------------------
    -------------------------------
    -9---7⁄4-7--9/11-11/13-9--7-4--
    -7---5⁄2-5--7/-9--9/11-7--5-2--
    
    Guitar 1 plays 2x while Guitar 2 plays the rythm
    Oh yeah Oh yea Oh yea Oh yea
    
    
    -------------------------------7--------------------------------------------
    -10^(12`10)-------------------7-10p7----------------------------------------
    ------------9^(11`9~)-7-9^(11)------9-7-9p7--7-------7---------------7~-----
    -------------------------------------------9--9-9p7-7--9-9-7-9p7--7-9---9---
    ---------------------------------------------------9------------9-----------
    ----------------------------------------------------------------------------
    Guitar 1 Lead
    
    -14-16^(18-18-18-18-18)-16p14-14-16-----------------------------------------
    -------------------------------------10p7-----------------------------------
    ---------------------------------------------7-9-9^(11)-7-------------------
    -----------------------------------------9~-9-------------------------------
    ----------------------------------------------------------9~----------------
    ----------------------------------------------------------------------------
    
    --------------------------
    --------------------------
    -8-5-8-8-10-13-8----------
    -7-6-7-9-11-14-9----------
    -7-6-7-9-11-14-9{strum}---
    -5-4-5-7--9-12-7----------
    Guitar 2 rythm plays 2x with above lead
    
    
    Why can't you believe, it's right here to be seen?
    Do you always have to be told, yeah
    For you have been taught, that if your mind has been bought
    Life's entire answer was sold.
    
    Oh yeah Oh yeah Oh yeah Oh yeah
    
    ----------------------------------------------------------------------------
    ----------------------------9~----------------------------------------------
    -8-9-11~-9-11-9p8h9---8-9-11---11-9-8-9-----8h9h11-8h9h11-8h9h11-9-8h9p8----
    -------------------9~------------------9-9~-----------------------------9~--
    ----------------------------------------------------------------------------
    ----------------------------------------------------------------------------
    
    ----------------------------------------------------------------------------
    ----------------------9~--14^(16-16-16-16-16-16-16`)14-12-12~-12-12~--------
    -8h9h11-8h9h11-8h9h11-------------------------------------------------------
    ----------------------------------------------------------------------------
    ----------------------------------------------------------------------------
    ----------------------------------------------------------------------------
    
    -15^(17)-15-12h15p12---12--------15--------15-------------------12-----------
    --------------------15----14^(16)---14^(16)--15p12--14-12-14^(16)---14-12-12-
    --------------------------------------------------14-------------------------
    -----------------------------------------------------------------------------
    -----------------------------------------------------------------------------
    -----------------------------------------------------------------------------
    {begin fade}
    
    -------------------------------------------------------------15^(17)-15^(17)
    -14-14^(16`14)-12-14^(16`14)-12-14^(16)-14^(16`14)-12-12--12----------------
    ----------------------------------------------------------------------------
    ----------------------------------------------------------------------------
    ----------------------------------------------------------------------------
    ----------------------------------------------------------------------------
    
    -15^(17)-15p12------------------------
    --------------15p12--12-14^(16)-12----
    -------------------14-----------------
    -------------------------------------- {fade out}
    --------------------------------------
    --------------------------------------
    
    At the end of the fade, you can hear (listen closely!) the band doing
    this to the tune below:
    
    ----------------------------------------
    ----------------------------------------
    ------------------8---------------------
    ------------7-7h9---9-7-----------------
    -7--7--9-10-------------9-7-------------
    na na na na nananana na na na
    

    Тональность:

    Нет текста!



    Назад
    Рекомендуем посмотреть другие песни исполнителя «Black Sabbath»:

    • Комментарии Facebook ()
    • Комментарии ВКонтакте



    Добавить в Избранное Браузера
    Сохранить здесь Очистить


    x

    0


    +
    -

    +
    -

    -

    Авторизация





    Зарегистрироваться

    M

    Дата и время

    • 16:47:35
       

    Социальные ссылки


    Наши приложения

    • Muzbank App Play Market
    • Muzbank Amazon App