MUZBANK



A Most Complete Bank Of Music Information

МУЗЫКАЛЬНО-ИНФОРМАЦИОННЫЙ БАНК

Поиск по сайту







    BBled • Red Wedding (аккорды и текст - chords & lyrics)


    315

    Print

    Видео «Red Wedding (Bled)»

    Видео клипы к песне подбираются автоматически сайтом youtube. Возможны некоторые несоответствия клипов песне.

    ↑ Спрятать рекламу ↑



    Download


     
    
    
    The Bled | Red Wedding
    Pass The Flask
    By: Ian
    x |palm mute
    ~ |bend
    ()|harmonic
    
    Dropped 2 steps
    
    e|--------------------------|
    b|--------------------------|
    g|-----2--------2-----------|
    d|-0-1---3--0-1---3----(5)--|
    a|--------------------------|
    E|--------------------------|
           x6        after last l
    
    
    e|-----------------------------------|
    b|-----------------------------------|
    g|-----------------------------------|
    d|-----------------------------------|
    a|-----2---------2-------------------|
    E|-0-1---3---0-1---3-----------------|
    
    e|---------------------------|
    b|---------------------------|
    g|---------------------------|
    d|----77-7-77-7-77-7-77-7/6--|
    a|----77-7-77-7-77-7-77-7/6--|
    E|-1/-55-5-55-5-55-5-55-5/4--|
          xx   xx   xx   xx
    
    e|---------------------------|
    b|---------------------------|
    g|---------------------------|
    d|--66-6-66-6-66-6-66-6/5----|
    a|--66-6-66-6-66-6-66-6/5----|
    E|--44-4-44-4-44-4-44-4/3----|
        xx   xx   xx   xx
    
    e|---------------------------|
    b|---------------------------|
    g|---------------------------|
    d|--55-5-55-5-55-5-55-5/4----|
    a|--55-5-55-5-55-5-55-5/4----|
    E|--33-3-33-3-33-3-33-3/2----|
        xx   xx   xx   xx
    
    1st time                               2nd time (Let Ring)
    e|----------------------------------|-----------|
    b|----------------------------------|-----------|
    g|----------------------------------|-----------|
    d|-44-4-4-44-4-4-44-4-4--5----------|---3-------|
    a|-44-4-4-44-4-4-44-4-4-----5-5/7~--|---3-------|
    E|-22-2-2-22-2-2-22-2-2-------------|---1-------|
       xx   x    x   xx   x
    
    
    e|--8-7-------8-7-----8-7------8-7---------------------|
    b|-------8-7------8-7------8-7-------8-7---------------|
    
    e|--10-8-7----10-8-7-----10-8-7----10-8-7----10-8-7-----|
    b|----------8---------8----------8---------8--------8---|
    
    e|--8-7-------8-7-----8-7------8-7-------------------------|
    b|-------8-7------8-7------8-7-------8-7---8-7-8-10-8-7----|
    
    e|--8-7-------8-7-----8-7------8-7----------------------|
    b|-------8-7------8-7------8-7-------8-7----------------|
    
    e|--10-8-7----10-8-7-----10-8-7----10-8-7----10-8-7-----|
    b|----------8---------8----------8---------8--------8---|
    
    e|--8-7-------8-7-----8-7------8-7---------------------------------------|
    b|-------8-7------8-7------8-7-------8-7---8-7-8-10-8-7-8-7-8-10-8-7-8---|
    
    
    e|----------------(5)-------------------------------------|
    b|-------------(5)----------------------------------------|
    g|--------------------------------------------------------|
    d|-2-3-2-3-2-3--------2----4---4---4---4----444444444-----|
    a|-2-2-2-2-2-2--------2--3---3---3---3------333333333-----|
    E|-0-0-0-0-0-0--------0-----------------------------------|
    
    e|---------------------------------------------------------|
    b|---------------------------------------------------------|
    g|---------------------------------------------------------|
    d|-2-2-2-222-2-2-2--2-2---2-2-2-222-2-2-2------------------|
    a|-2-2-2-222-2-2-2--2-2---2-2-2-222-2-2-2------2-----------|
    E|-0-0-0-000-0-0-0--0-0---0-0-0-000-0-0-0--0-1---3---------|
    
    e|---------------------------------------------------------|
    b|---------------------------------------------------------|
    g|---------------------------------------------------------|
    d|-2-2-2-222-2-2-2--2-2---2-2-2-222-2-2-2------------------|
    a|-2-2-2-222-2-2-2--2-2---2-2-2-222-2-2-2------2-----------|
    E|-0-0-0-000-0-0-0--0-0---0-0-0-000-0-0-0--0-1---3---------|
    
    e|--------------------------------------------------------|
    b|--------------------------------------------------------|
    g|------------3-------------------------------------------|
    d|-2-2-2-222--0--2-2-2--2-2---2-2-2-222-2-2-2-------------|
    a|-2-2-2-222-----2-2-2--2-2---2-2-2-222-2-2-2-----2-------|
    E|-0-0-0-000-----0-0-0--0-0---0-0-0-000-0-0-0-0-1---3-----|
    
    e|------------------------------------------------------------|
    b|------------------------------------------------------------|
    g|------------3-----------------------------------------------|
    d|-2-2-2-222--0--2-2-2--2-2---2-2-2-222-2-2-2-----------------|
    a|-2-2-2-222-----2-2-2--2-2---2-2-2-222-2-2-2-----2-----------|
    E|-0-0-0-000-----0-0-0--0-0---0-0-0-000-0-0-0-0-1---3---------|
    
    e|----------------------------|
    b|----------------------------|
    g|----------------------------|
    d|-77-7-77-7-77-7-77-7/6------|
    a|-77-7-77-7-77-7-77-7/6------|
    E|-55-5-55-5-55-5-55-5/4------|
          xx   xx   xx   xx
    
    e|---------------------------|
    b|---------------------------|
    g|---------------------------|
    d|--66-6-66-6-66-6-66-6/5----|
    a|--66-6-66-6-66-6-66-6/5----|
    E|--44-4-44-4-44-4-44-4/3----|
        xx   xx   xx   xx
    
    e|---------------------------|
    b|---------------------------|
    g|---------------------------|
    d|--55-5-55-5-55-5-55-5/4----|
    a|--55-5-55-5-55-5-55-5/4----|
    E|--33-3-33-3-33-3-33-3/2----|
        xx   xx   xx   xx
    
    1st time                               2nd time (Let Ring)
    e|----------------------------------|-----------|
    b|----------------------------------|-----------|
    g|----------------------------------|-----------|
    d|-44-4-4-44-4-4-44-4-4--5----------|---3-------|
    a|-44-4-4-44-4-4-44-4-4-----5-5/7~--|---3-------|
    E|-22-2-2-22-2-2-22-2-2-------------|---1-------|
       xx   x    x   xx   x
    
    e|------|
    b|------|
    g|------|
    d|--2---|
    a|--2---|
    E|--0---|
    
    e|-----------9-9-9-9/15151515---------------------------|
    b|----------13131313/18181818---------------------------|
    g|------------------------------------------------------|
    d|-2-2-2-2-2--------------------2-2-2-2-2---2222--------|
    a|-2-2-2-2-2--------------------2-2-2-2-2---2222--------|
    E|-0-0-0-0-0--------------------0-0-0-0-0---0000--------|
       x x x x x                    x x x x x   xxxx
    
    e|-----------9-9-9-9/15151515------------------------------|
    b|----------13131313/18181818------------------------------|
    g|---------------------------------------------------------|
    d|-2-2-2-2-2--------------------2-2-2-2-2--3-3-3-3-2-9~----|
    a|-2-2-2-2-2--------------------2-2-2-2-2------------------|
    E|-0-0-0-0-0--------------------0-0-0-0-0------------------|
       x x x x x                    x x x x x
    
    e|---------------------------------------------|
    b|---------------------------------------------|
    g|---------------------------------------------|
    d|-2-2-2-2-2-----------2-2-2-2-2---2222--------|
    a|-2-2-2-2-2-----------2-2-2-2-2---2222--------|
    E|-0-0-0-0-0-----------0-0-0-0-0---0000--------|
       x x x x x           x x x x x   xxxx
    
    e|-----------9-9-9-9/15151515---------------------------|
    b|----------13131313/18181818---------------------------|
    g|------------------------------------------------------|
    d|-2-2-2-2-2--------------------2-2-2-2-2---2222--------|
    a|-2-2-2-2-2--------------------2-2-2-2-2---2222--------|
    E|-0-0-0-0-0--------------------0-0-0-0-0---0000--------|
       x x x x x                    x x x x x   xxxx
     

    Тональность:

    Нет текста!



    Назад
    Рекомендуем посмотреть другие песни исполнителя «Bled»:

    • Комментарии Facebook ()
    • Комментарии ВКонтакте



    Добавить в Избранное Браузера
    Сохранить здесь Очистить


    x

    0


    +
    -

    +
    -

    -

    Авторизация





    Зарегистрироваться

    M

    Дата и время

    • 22:48:59
       

    Социальные ссылки


    Наши приложения

    • Muzbank App Play Market
    • Muzbank Amazon App