MUZBANK



A Most Complete Bank Of Music Information

МУЗЫКАЛЬНО-ИНФОРМАЦИОННЫЙ БАНК

Поиск по сайту







    BBlink 182 • Anthem Part Two (ver 14) (аккорды и текст - chords & lyrics)


    343

    Print

    Видео «Anthem Part Two (ver 14) (Blink 182)»

    Видео клипы к песне подбираются автоматически сайтом youtube. Возможны некоторые несоответствия клипов песне.

    ↑ Спрятать рекламу ↑



    Download


     
    
    
    anthem part two
    *=palm muted
    tabbed by art
    this is how i think this is really played
    it sounds better than the other versions and also i have looked a lot of live 
    performances so enjoy
    intro
    e|--------------------------------------------|
    B|-8---8---6---6---5---5---6---6--------------|
    G|---5---5---5---5---5---5---5---6------------|
    D|--------------------------------------------|
    A|--------------------------------------------|
    E|--------------------------------------------|
    
    hit really hard in the hammers
    e|--------------------------------------------------------|
    B|--------------------------------------------------------|
    G|--------------------------------------------------------|
    D|-----0h3-----2-----0h3-----2-----0h3-----2------0----0--|
    A|-3-3-----3-3---3-3-----3-3---3-3-----3-3----3-3---3-3---|
    E|--------------------------------------------------------|
       * *     * *   * *     * *   * *     * *    * *   * *
    then this thing
    e|-----------------------------|
    B|-----------------------------|
    G|-999-10-10-99-55-77----------|
    D|-xxx--x--x-xx-xx-xx----------|    3x
    A|-777--8--8-77-33-55----------|
    E|-----------------------------|
    then the last time
    e|------------------------------|
    B|------------------------------|
    G|-999-10-10--5----------5------|
    D|-xxx--x--x--5----------5------|
    A|-777--8--8--3--3333333-3------|
    E|------------------------------|
    verse
    e|----------------------------------------|
    B|----------------------------------------|
    G|-99-55-555555-0-------------------------|
    D|-99-55-555555-0-77777-0-33333-----------|
    A|-77-33-333333-0-77777-0-33333-----------|
    E|----------------55555-0-11111-----------|
             ****** * ***** * *****
    Chorus
    e|----------------------------------------|
    B|----------------------------------------|
    G|-----------0-5555-----------------------| 2x
    D|-222-0-333-0-5555-55555-----------------|
    A|-222-0-333-0-3333-55555-----------------|
    E|-000-0-111--------33333-----------------|
    after the chorus
    e|-------------------------------------|
    B|-------------------------------------|
    G|-222------5555-------222-3-----------|
    D|-222-3333-5555-55555-222-3-----------|
    A|-000-3333-3333-55555-000-1-----------|
    E|-----1111------33333-----------------|
       *** **** **** ***** ***
    then again the thing after the intro
    again the verse
    the again the chorus
    then the thing after the chorus 
    and then this:
    INTERLUDE:
    e|-----|
    B|-----|
    G|-5---|   let ring
    D|-5---|
    A|-3---|
    E|-----|
    
    *then the chorus again
    *the second intro then x4
    *and the first intro playing also when its the second time in the second intro
    
    IN LIVE SHOWS:
    tom do a pick slide before the chorus and the thing after the chorus without palm 
    muting those chords and also he at the end he doesnt plays the first intro after 
    the second he just goes on with the second one
     

    Тональность:

    Нет текста!



    Назад
    Рекомендуем посмотреть другие песни исполнителя «Blink 182»:

    • Комментарии Facebook ()
    • Комментарии ВКонтакте



    Добавить в Избранное Браузера
    Сохранить здесь Очистить


    x

    0


    +
    -

    +
    -

    -

    Авторизация





    Зарегистрироваться

    M

    Дата и время

    • 09:11:19
       

    Социальные ссылки


    Наши приложения

    • Muzbank App Play Market
    • Muzbank Amazon App