MUZBANK



A Most Complete Bank Of Music Information

МУЗЫКАЛЬНО-ИНФОРМАЦИОННЫЙ БАНК

Поиск по сайту







    BBlink 182 • Carousel (ver 13) (аккорды и текст - chords & lyrics)


    260

    Print

    Видео «Carousel (ver 13) (Blink 182)»

    Видео клипы к песне подбираются автоматически сайтом youtube. Возможны некоторые несоответствия клипов песне.

    ↑ Спрятать рекламу ↑



    Download


     
    
    
    Carousel(Live Version)
    
    Pre-Intro(clean tone)
    3]-7---|-7-------|
    4]-7---|-7-7-9-5-|
    5]-5---|-5-7-9-5-|
    6]-----|---5-7-3-|
      |
    (fade in)
    
    Intro(dist)
    3]-7-------|----------|
    4]-7-7-9-5-|-55555555-|
    5]-5-7-9-5-|-55555555-|
    6]---5-7-3-|-33333333-|
    
    Interlude(1)(part 1)                          (part 2)
    4]---------------------------------------------4-2-4-7-5-4-2
    5]-4-5-(5)-4-5-7-5-4-5-(5)-4-5-(7)-4-5-7-5-4-0/-------------
    
    4]-4-2-4-0-(0)-4-0-(0)-4-0-(0)-(4)-0-(0)-7-5-(0)-4-0-(0)-|
    5]---------------------------------------------------------|
    
    Verse(1)   Chorus
    3]-7-------|-7-9---------|
    4]-7-7-9-5-|-7-9-7-(p)-5-| -(p,stands for palse)
    5]-5-7-9-5-|-5-7-7-(p)-5-|
    6]---5-7-3-|-----5-(p)-3-|
                    
    Inter.(part 2)
    
    Verse(2)
    
    Chorus
    3]-(7)-| -(at end of chorus let chord on left ring 
    4]-(7)-|   through)
    5]-(5)-|  
                                            (ending one)
    Interlude(2)                                 |
    3]-7-------------------------------------------------------|
    4]-7-4-5-7-5-4-0-7-------------9-------------5-------------|
    5]-5-------------7-4-5-7-5-4-0-9-6-7-9-7-6-0-5-2-3-5-3-2-0-|
    6]---------------5-------------7-------------3-------------|
    Interlude(2)(ending two)
    4]-55555555-|
    5]-55555555-|
    6]-33333333-|
    
    Chorus
    3]-(7)-| -(at end of chorus let chord on left ring 
    4]-(7)-|   through)
    5]-(5)-|
     

    Тональность:

    Нет текста!



    Назад
    Рекомендуем посмотреть другие песни исполнителя «Blink 182»:

    • Комментарии Facebook ()
    • Комментарии ВКонтакте



    Добавить в Избранное Браузера
    Сохранить здесь Очистить


    x

    0


    +
    -

    +
    -

    -

    Авторизация





    Зарегистрироваться

    M

    Дата и время

    • 16:52:48
       

    Социальные ссылки


    Наши приложения

    • Muzbank App Play Market
    • Muzbank Amazon App