MUZBANK



A Most Complete Bank Of Music Information

МУЗЫКАЛЬНО-ИНФОРМАЦИОННЫЙ БАНК

Поиск по сайту







    BBlink 182 • Carousel (ver 9) (аккорды и текст - chords & lyrics)


    311

    Print

    Видео «Carousel (ver 9) (Blink 182)»

    Видео клипы к песне подбираются автоматически сайтом youtube. Возможны некоторые несоответствия клипов песне.

    ↑ Спрятать рекламу ↑



    Download


     
    
    
    Blink-182
    Song - Carousel
    This is a Bass Tab!!
    Submitted By: Blinker27
    
    here is a good tab for carousel
    
    
    INTRO
    ----11-11-12-14-12-11-----------------------------
    -12-------------------12------11-11-12-14-12-11---
    ---------------------------12-------------------12
    --------------------------------------------------
    
    
    
    ---9-9-11-12-11-9-12------7-----7---7
    -9--------------------5-5---5-5---5--
    -------------------------------------
    -------------------------------------
    
    
    
    ----11-11-12-14-12-11-----------------------------
    -12-------------------12------11-11-12-14-12-11---
    ---------------------------12-------------------12
    --------------------------------------------------
    
    
    
    ---9-9-11-12-12-11-11--77777777
    -9---------------------55555555
    -------------------------------
    -------------------------------
    
    INTRO Part Two      X4
    11-11-11-11--999999-11-11-11-11-11-11--777777
    -0--0--0--0--777777--9--9--9--9--9--9--555555
    ---------------------------------------------
    ---------------------------------------------
    
    
    INTRO Part Three
    -------------------------------------------------
    -------------------------------------------------
    -5-5-5-5-5-5-5-5---------------------------------
    -----------------5-5-5-5-5-5-5-5--7-7-7-7-7-7-7-7
    
    INTRO Part Three coninued...
    ---------------
    ---------------
    ---------------
    3-3-3-3-3-3-3-3
    
    
    the guitar comes in and makes some slow notes
    while the bass does this...
    
    11-11-11-11--9-9-9-9--11-11-11-11--7-7-7-7
    ------------------------------------------
    ------------------------------------------  X2
    ------------------------------------------
    
    
    Riff One   X2
    --------------------------------------------
    --------------------------------------------
    55555555------------------------------------
    --------55555555-77777777-33333333--77-55-33
    
    
    Riff Two   X2
    ----------------------------------
    ----------------------------------
    55555555--------------------------
    --------55555555-77777777-33333333
    
    
    Chorus     X3... i think...
    -------------------------------
    -------------------------------
    5-5-5-5-5-5-5-5-7-7-7-7-7-7-7-7
    -------------------------------
    
    
    -------------------------------------------
    -------------------------------------------
    9-9-9-9-9-9-9-9--10-10-10-10-10-10-10-10-10
    -------------------------------------------
    
    Go back to Riff One, then play riff two...
    then... play chorus... and here comes the:
    
    
    Small solo X2
    11-11-11-11-9-9-9-9-11-11-11-11--7-7-7-7
    ----------------------------------------
    ----------------------------------------
    ----------------------------------------
    
    Guitar solo comes in then you play
    Riff One and chorus and your finished with the song.
    
    question or comments email me at BLinkeR 37@aol.com
     

    Тональность:

    Нет текста!



    Назад
    Рекомендуем посмотреть другие песни исполнителя «Blink 182»:

    • Комментарии Facebook ()
    • Комментарии ВКонтакте



    Добавить в Избранное Браузера
    Сохранить здесь Очистить


    x

    0


    +
    -

    +
    -

    -

    Авторизация





    Зарегистрироваться

    M

    Дата и время

    • 13:15:56
       

    Социальные ссылки


    Наши приложения

    • Muzbank App Play Market
    • Muzbank Amazon App