MUZBANK



A Most Complete Bank Of Music Information

МУЗЫКАЛЬНО-ИНФОРМАЦИОННЫЙ БАНК

Поиск по сайту







    BBlink 182 • Feeling This (ver 13) (аккорды и текст - chords & lyrics)


    276

    Print

    Видео «Feeling This (ver 13) (Blink 182)»

    Видео клипы к песне подбираются автоматически сайтом youtube. Возможны некоторые несоответствия клипов песне.

    ↑ Спрятать рекламу ↑



    Download


     
    
    
    -----------------------------------------------------------------------
                          Blink 182 – Feeling This
    -----------------------------------------------------------------------
    Key:
    /    = Slide up
        = Slide down
    Pm:  = Palm Muted
    This has got an awesome guitar verse riff. This is how I play the song if
    I have stuffed up send me an email at skatie_01@hotmail.com 
    
    Verse (I’ve got a regret right now…)
    E-----------------------------------
    B-----------------------------------
    G--13-/-15--13-13--13-13--13-/-17--
    D--13-/-15--13-13--13-13--13-/-17--	  x8
    A--11-/-13--11-11--11-11--11-/-15--
    E-----------------------------------
    
    Chorus (Fate, fell, short… - Place, your, hand...)
    E-------|---|----------------|---|--------------|
    B-------|---|----------------|---|--------------|
    G-------|-9-|----------------|-9-|--------------|
    D-------|-9-|----------------|-9-|--------------|
    A-------|-7-|----------------|-7-|--------------|
    E-------|---|----------------|---|--------------|
    
    E--------------------------------------------------
    B--------------------------------------------------
    G--9-9-9-9--11-11-11-11--13-13-13-13--15-15-15-15--
    D--9-9-9-9--11-11-11-11--13-13-13-13--15-15-15-15--
    A--7-7-7-7---9--9--9--9--11-11-11-11--13-13-13-13--
    E--------------------------------------------------
    
    Verse (Where do we go from here…)
    E-----------------------------------
    B-----------------------------------
    G--13-/-15--13-13--13-13--13-/-17--
    D--13-/-15--13-13--13-13--13-/-17--	  x8
    A--11-/-13--11-11--11-11--11-/-15--
    E-----------------------------------
    
    Chorus (Fate, fell, short… - Place, your, hand…)
    E-------|---|----------------|---|--------------|
    B-------|---|----------------|---|--------------|
    G-------|-9-|----------------|-9-|--------------|
    D-------|-9-|----------------|-9-|--------------|
    A-------|-7-|----------------|-7-|--------------|
    E-------|---|----------------|---|--------------|
    
    Just Drums (This place was never the same again…)
    
    Interlude (Look into the past, and remember to smile…)
    E------------------------------------------------------
    B------------------------------------------------------
    G------------------------------------------------------
    D--99999999--------------------------------------------
    A--77777777-9999999--11-11-11-11-11-11-11-11-77777777--
    E-----------77777777-—9--9--9--9--9--9--9--9-55555555--
    Pm: . . . . . . . . . . . . . . . . . . . . . . . . . .
    
    Chorus (Fate, fell, short… - Place, your, hand…)
    E-----------------------------------
    B-----------------------------------
    G----------4-4-4-4-5-5-5-5-2-2-2-2--
    D--2-2-2-2-4-4-4-4-5-5-5-5-2-2-2-2--
    A--2-2-2-2-2-2-2-2-3-3-3-3-0-0-0-0--
    E--0-0-0-0--------------------------
     

    Тональность:

    Нет текста!



    Назад
    Рекомендуем посмотреть другие песни исполнителя «Blink 182»:

    • Комментарии Facebook ()
    • Комментарии ВКонтакте



    Добавить в Избранное Браузера
    Сохранить здесь Очистить


    x

    0


    +
    -

    +
    -

    -

    Авторизация





    Зарегистрироваться

    M

    Дата и время

    • 01:38:02
       

    Социальные ссылки


    Наши приложения

    • Muzbank App Play Market
    • Muzbank Amazon App