MUZBANK



A Most Complete Bank Of Music Information

МУЗЫКАЛЬНО-ИНФОРМАЦИОННЫЙ БАНК

Поиск по сайту







    BBlink 182 • Feeling This (ver 14) (аккорды и текст - chords & lyrics)


    318

    Print

    Видео «Feeling This (ver 14) (Blink 182)»

    Видео клипы к песне подбираются автоматически сайтом youtube. Возможны некоторые несоответствия клипов песне.

    ↑ Спрятать рекламу ↑



    Download


     
    
    
    ************************
    * Artist: BLINK 182    *
    * Song: Feeling this   *
    * Album: Blink 182     *
    * Tabbed by: Jose Cruz *
    ************************
    
    palm muted = *
    slide = /
    let ring = ~
    
    Intro
    1 --------------------------|
    2 --------------------------|
    3 --------------------------|
    4 --4/2-222-----2/6---------|
    5 ---------------------2----|
    6 ----------0~~~-------0----|
    
    Verse
    1 --------------------------|
    2 --------------------------|
    3 --------------------------|
    4 --4/2-222-----2/6/2-------|
    5 --------------------------|
    6 ----------0~~~------------|
    
    Chorus Pt1 [Guitar 1]
    1 -------|
    2 -------|
    3 ---4---|
    4 ---2---|
    5 ---2---|
    6 ---0---|
    
    Chorus Pt2 [Guitar 1]
    1 -------|
    2 -------|
    3 -------|
    4 ---2---|
    5 ---2---|
    6 ---0---|
    
    Chorus Pt2 [Guitar 2]
    1 -------|
    2 -------|
    3 ---9---|
    4 ---9---|
    5 ---7---|
    6 -------|
    
    Interlude 1
    1 ---------------------------------------------------------------------|
    2 ---------------------------------------------------------------------|
    3 -99999999-9/11-1111111111111111-11/13-1313131313-13/14-1414141414----|
    4 -xxxxxxxx-xxx---xxxxxxxxxxxxxxx--xxxx-xxxxxxxxxx-x--x--xxxxxxxxxx----|
    5 -77777777-7/9---9 9 9 9 9 9 9 9--9/11-1111111111-11/12-1212121212----|
    6 ---------------------------------------------------------------------|
    
    Interlude 2 [Guitar 1]
    1 --------------------------------------|
    2 --------------------------------------|
    3 --------------------------------------|
    4 ---6-6--------2244---6-6--------2244--|
    5 -77-7-7-22-222-----77-7-7-00-000------|
    6 --------------------------------------|
       ****** ********** ****** **********
    
    Interlude 2 [Guitar 2]
    1 --------------------------------------|
    2 --------------------------------------|
    3 --------------------------------------|
    4 -99999999-44444444-66666666-22222222--|
    5 -77777777-22222222-44444444-00000000--|
    6 --------------------------------------|
       ******** ******** ******** ********
    
    Final Chorus
    1 ------------------------------------------|
    2 ------------------------------------------|
    3 -9999999-44444444-66666666-22222222-------|
    4 -9999999-44444444-66666666-22222222-------|
    5 -7777777-22222222-44444444-00000000-------|
    6 ------------------------------------------|
    
    SONG STRUCTURE
    Intro x2
    Verse x8
    Chorus Pt1 x1
    Chorus Pt2 [Guitar 1] and [Guitar 2] x1 when tom starts singing
    Interlude 1 x1
    Intro x2
    Verse x6
    Chorus Pt1 x1
    Chorus Pt2 [Guitar 1] and [Guitar 2] x1 when tom starts singing
    Interlude 2 [Guitar 1] and [Guitar 2] x2
    Final Chorus x2
    Final Chorus [Guitar 1] x6 and verse [Guitar 2] x12 then fades
     

    Тональность:

    Нет текста!



    Назад
    Рекомендуем посмотреть другие песни исполнителя «Blink 182»:

    • Комментарии Facebook ()
    • Комментарии ВКонтакте



    Добавить в Избранное Браузера
    Сохранить здесь Очистить


    x

    0


    +
    -

    +
    -

    -

    Авторизация





    Зарегистрироваться

    M

    Дата и время

    • 19:39:24
       

    Социальные ссылки


    Наши приложения

    • Muzbank App Play Market
    • Muzbank Amazon App