MUZBANK



A Most Complete Bank Of Music Information

МУЗЫКАЛЬНО-ИНФОРМАЦИОННЫЙ БАНК

Поиск по сайту







    BBlink 182 • Fentoozler (аккорды и текст - chords & lyrics)


    312

    Print

    Видео «Fentoozler (Blink 182)»

    Видео клипы к песне подбираются автоматически сайтом youtube. Возможны некоторые несоответствия клипов песне.

    ↑ Спрятать рекламу ↑



    Download


     
    
    
    ----------------------------------------------------------
    		Fentoozler - Blink 182
    ----------------------------------------------------------
    
    Tabbed By: J.D. Norwood (j_d_norwood12@hotmail.ccom)
    Album:cheshire cat
    
    			intro
    e|--------------------------------------------------------|
    B|--------------------------------------------------------|
    G|--------------------------------------------------------|
    D|----------111111111111111111----------99999999----------|
    A|-99999999--9-9-9-9-9-9-9-9-9-99999999-77777777-99999999-|
    E|-77777777--------------------77777777----------77777777-|
    
    e|--------------------------------------------------------|
    B|--------------------------------------------------------|
    G|--------------------------------------------------------|
    D|-66666666-99999999-9-8-6--------------------------------|
    A|-44444444-77777777-7-6-4--------------------------------|
    E|--------------------------------------------------------|
    
    			Chorus - X=heavy struming 
    e|--------------------------------------------------------|
    B|--------------------------------------------------------|
    G|--------------------------------------------------------|
    D|----------11XXXXXXXXXXXXXXXX----------9XXXXXXX----------|
    A|-9XXXXXXX--9-X-X-X-X-X-X-X-X-9XXXXXXX-7XXXXXXX-9XXXXXXX-|
    E|-7XXXXXXX--------------------7XXXXXXX----------7XXXXXXX-|
    
    e|--------------------------------------------------------|
    B|--------------------------------------------------------|
    G|--------------------------------------------------------|
    D|-6XXXXXXX-9XXXXXXX-9-8-6--------------------------------|
    A|-4XXXXXXX-7XXXXXXX-7-6-4--------------------------------|
    E|--------------------------------------------------------|
    
    			Verse 
    e|--------------------------------------------------------|
    B|--------------------------------------------------------|
    G|--------------------------------------------------------|
    D|-66666666-99999999----------1111111111111111------------|
    A|-44444444-77777777-99999999--9-9-9-9-9-9-9-9------------|
    E|-------------------77777777-----------------------------|
    
    			Outro
    e|--------------------------------------------------------|
    B|--------------------------------------------------------|
    G|--------------------------------------------------------|
    D|------6------11------99---------------------------------|
    A|-9999-4-9999--9-9999-77---------------------------------|
    E|-7777---7777----7777------------------------------------|
    
    	Order
    intro x2
    chorus x2
    verse x2
    intro x2
    chorus x2
    verse x2
    intro x2
    verse x2
    outro x1
    
    ==========================================================
     

    Тональность:

    Нет текста!



    Назад
    Рекомендуем посмотреть другие песни исполнителя «Blink 182»:

    • Комментарии Facebook ()
    • Комментарии ВКонтакте



    Добавить в Избранное Браузера
    Сохранить здесь Очистить


    x

    0


    +
    -

    +
    -

    -

    Авторизация





    Зарегистрироваться

    M

    Дата и время

    • 09:12:42
       

    Социальные ссылки


    Наши приложения

    • Muzbank App Play Market
    • Muzbank Amazon App