MUZBANK



A Most Complete Bank Of Music Information

МУЗЫКАЛЬНО-ИНФОРМАЦИОННЫЙ БАНК

Поиск по сайту







    BBlink 182 • First Date (ver 10) (аккорды и текст - chords & lyrics)


    236

    Print

    Видео «First Date (ver 10) (Blink 182)»

    Видео клипы к песне подбираются автоматически сайтом youtube. Возможны некоторые несоответствия клипов песне.

    ↑ Спрятать рекламу ↑



    Download


     Intro
    e-0-------------------------------------------x2
    B---1---1---3-1---1---3-1---1---3--1---0------
    G-----0---------0---------0----------0--(0)---
    D---------------------------------------------
    A---------------------------------------------
    E---------------------------------------------
    
    Guitar Verse
    e---------------------------------------------
    B---------------------------------------------
    G-55-555-55-555-55-555-55-555-55-555-55-555-55
    
    e-------------
    B-------------
    G-555-55-555--
    (continued, from guitar verse)
    
    pre-chorus 
    e-------------------------x2
    B-------------------------
    G-555-444-2-2-2-2---------
    D-555-444-2-2-2-2-3-3-5-5-
    A-333-222-0-0-0-0-3-3-5-5-
    E-----------------1-1-3-3-
    
    chorus 
    e--------------------------------------x2
    B--------------------------------------
    G-555555554444444422222222-------------
    D-555555554444444422222222-3-3-5-5-----
    A-333333332222222200000000-3-3-5-5-----
    E--------------------------1-1-3-3-----
    
    bridge 
    e----------------------------------------x2
    B----------------------------------------
    G-55555555-------------------------------
    D-55555555--22222222--33333333--55555555-
    A-33333333--22222222--33333333--55555555-
    E-----------00000000--11111111--33333333-
    
    e----------------------------------------------x4
    B----------------------------------------------
    G--555555--999955--1010101055--7777777-7----
    D--xxxxxx--xxxx-xx--xxxxxxxx-xx--xxxxxxx-x-----
    A--333333--777733--8-8-8-8-55--5555555-5----
    E---------------------------------------------- 

    Тональность:

    Нет текста!



    Назад
    Рекомендуем посмотреть другие песни исполнителя «Blink 182»:

    • Комментарии Facebook ()
    • Комментарии ВКонтакте



    Добавить в Избранное Браузера
    Сохранить здесь Очистить


    x

    0


    +
    -

    +
    -

    -

    Авторизация





    Зарегистрироваться

    M

    Дата и время

    • 19:44:06
       

    Социальные ссылки


    Наши приложения

    • Muzbank App Play Market
    • Muzbank Amazon App