MUZBANK



A Most Complete Bank Of Music Information

МУЗЫКАЛЬНО-ИНФОРМАЦИОННЫЙ БАНК

Поиск по сайту







    BBlink 182 • First Date (ver 8) (аккорды и текст - chords & lyrics)


    421

    Print

    Видео «First Date (ver 8) (Blink 182)»

    Видео клипы к песне подбираются автоматически сайтом youtube. Возможны некоторые несоответствия клипов песне.

    ↑ Спрятать рекламу ↑



    Download


     
    
    
    song:First date
    artist:Blink 182
    tabbed by:Art
    This is (again) the correct version for first date another great blink 182 song
    Enjoy
    
    Intro (2x)
    e|--1------------------------------------------------------|
    B|----3----1-----3--1-----1-----3---1-----1------3--1-----0|
    G|------0-----0--------0------0--------0------0--------0---|
    D|---------------------------------------------------------|
    A|---------------------------------------------------------|
    E|---------------------------------------------------------|
    
    Then this
    e|------------|
    B|------------|
    G|----5-------|   (Let ring) 
    D|----5-------| 
    A|----3-------|
    E|------------|
    
    Verse (Palm Muted)
    
    e|--------------|
    B|--------------| 
    G|-----5--------|  Repeat until pre-chorus
    D|-----5--------|
    A|-----3--------|
    E|--------------|
    
    Pre-Chorus
    
    e|------------------------------------------|
    B|------------------------------------------|
    G|----555----444---------2222-x-------------|
    D|----555----444---------2222-x--3-x--55----|     2x
    A|----333----222---------0000-x--3-x--55----|
    E|-------------------------------1-x--33----|
       Letґs go, Donґt wait, This nightґs ...
    
    Chorus
    e|-----------------------------|
    B|-----------------------------|
    G|---5555-4444-2222------------|     2x
    D|---5555-4444-2222--33-55-----|
    A|---3333-2222-0000--33-55-----|
    E|-------------------11-33-----|
    
    Interlude
    e|--------------------------------------|
    B|--------------------------------------|
    G|-----55555555-------------------------|
    D|-----55555555-2222222-3333333-555555--|
    A|-----33333333-2222222-3333333-555555--|
    E|--------------0000000-1111111-333333--|
       PM  ........ ....... ....... ......
    
    Then
    
    e|---------------------------------------|
    B|---------------------------------------|
    G|-5555555-999999/55-10101010/55-777777--|   4x
    D|-5555555-999999/55-10101010/55-777777--|
    A|-3333333-777777/33-8-8-8-8-/33-555555--|
    E|---------------------------------------|
    
    Order
    intro (2x)
    verse (all times necesary)
    Pre-chorus (2x)
    Chorus (2x)
    intro (2x)
    verse (all times necesary)
    Pre-chorus (2x)
    Chorus (2x)
    Interlude:
    1st part (2x)
    2nd part (4x)
    Pre-Chorus (2x)
    Chorus (4x)
    
    Enjoy this song,play along with the cd, I saw Tom playing it
    live on the Europe music awards so you can be sure this is the right version
     

    Тональность:

    Нет текста!



    Назад
    Рекомендуем посмотреть другие песни исполнителя «Blink 182»:

    • Комментарии Facebook ()
    • Комментарии ВКонтакте



    Добавить в Избранное Браузера
    Сохранить здесь Очистить


    x

    0


    +
    -

    +
    -

    -

    Авторизация





    Зарегистрироваться

    M

    Дата и время

    • 11:17:06
       

    Социальные ссылки


    Наши приложения

    • Muzbank App Play Market
    • Muzbank Amazon App