MUZBANK



A Most Complete Bank Of Music Information

МУЗЫКАЛЬНО-ИНФОРМАЦИОННЫЙ БАНК

Поиск по сайту







    BBlink 182 • Rock Show (ver 3) (аккорды и текст - chords & lyrics)


    359

    Print

    Видео «Rock Show (ver 3) (Blink 182)»

    Видео клипы к песне подбираются автоматически сайтом youtube. Возможны некоторые несоответствия клипов песне.

    ↑ Спрятать рекламу ↑



    Download


     (*) -Play Note 8 times
    
    E|
    B|--------------------
    G|--------------------
    D|------2---0---------
    A|-0000--00--00-545---
    E|--------------------
    Intro
    
    E|----------------------------------
    B|----------------------------------
    G|-----7--9-------------------------
    D|7----7--9-------------------------
    A|7----5--7-------------------------
    E|5---------------------------------
    Verse
    
    E|---------------|
    B|---------------|
    G|---------77-66-|9*-7*-9*-7*-9*--7-6
    D|-7-7-7-7-77-66-|9*-7*-9*-7*-9*--7-6
    A|-7-7-7-7-55-44-|7*-5*-7*-5*-7*--5-4
    E|-5-5-5-5-------|-------------------
    Chours part 1     pm............. end
    
    E|
    B|-2---2---2---3---2---2---2---3------------
    G|---2---2---2---2---2---2---2--------------
    D|------------------------------------------
    A|------------------------------------------
    E|------------------------------------------
    Interlude Part 1
    
    E|-------------|--------------------
    B|-------------|--------------------
    G|-------7*-7*-|-------9*-7*--------
    D|-4*-4*-7*-7*-|-7*-7*-9*-7*--------
    A|-4-*4*-5*-5--|-7*-7*-7*-5*--------
    E|-2*-2*-------|-5*-5*--------------
    Interlude Part 2
    
    Song Order
    Intro 4x
    Verse 2x
    Intro 4x
    Verse 0x
    Chorus 3x +ending
    Intro 4x
    Verse 2x
    Chorus 3x +ending
    Interlude Part 1 and 2 1x
    Chorus 3x +ending
    Intro fade out 

    Тональность:

    Нет текста!



    Назад
    Рекомендуем посмотреть другие песни исполнителя «Blink 182»:

    • Комментарии Facebook ()
    • Комментарии ВКонтакте



    Добавить в Избранное Браузера
    Сохранить здесь Очистить


    x

    0


    +
    -

    +
    -

    -

    Авторизация





    Зарегистрироваться

    M

    Дата и время

    • 17:32:21
       

    Социальные ссылки


    Наши приложения

    • Muzbank App Play Market
    • Muzbank Amazon App