MUZBANK



A Most Complete Bank Of Music Information

МУЗЫКАЛЬНО-ИНФОРМАЦИОННЫЙ БАНК

Поиск по сайту







    BBlink 182 • Shut Up (аккорды и текст - chords & lyrics)


    233

    Print

    Видео «Shut Up (Blink 182)»

    Видео клипы к песне подбираются автоматически сайтом youtube. Возможны некоторые несоответствия клипов песне.

    ↑ Спрятать рекламу ↑



    Download



     
    
    
    Intro                               
    e-----------       
    B-----------      
    G-----------      
    D-|-7-7-7-7-7-7-7---       
    A--------0-       
    E-----------  
         
    Играем мелодию дважды
    
    Мелодия (играется вместе с бас-гитарой) 
    e---------------------------  
    B--------------------------- 
    G-|------9-------9------9--------9----  
    D-|-7-7---7-7-7---------7---------7-
    A--------------------------  
    E-------9-9----10-10----  
                                                                                                                        
    дальше идет бас с текстом:
    Shut the fuck up she said
    Iґm going fucking deaf
    youґre always too loud
    everythingґs too loud
    Now that all my friends left
    this place is fucking dead
    I want to move out
    when can we move out
    this shit has got to stop
    Iґll run away
    
    Опять мелодию дважды,
    а потом бас с текстом:
    Get the fuck up she said
    your life is meaningless
    itґs going nowhere
    youґre going nowhere
    Youґre just a fuck up she said
    Iґll live alone instead
    she said "you donґt care"
    I know I donґt care
    
    затем Комбинацию1 дважды с текстом:
    Iґll never ask permission from you
    Fuck off Iґm not listening to you
    
    Комбинация1:
    "I’ll never…"
    E----------------------------------------      
    B----------------------------------------      
    G--------------------14-14-14-14-14-      
    D-|--5-5-5-5-5----5-5-5-5-5-14-14-14-14-14-      
    A-|--5-5-5-5-5----5-5-5-5-5-12-12-12-12-12-
    E-|--7-7-7-7-7--- -7-7-7-7-7---------------------
    
    потом Комбинацию2 дважды с текстом:
    Iґm not coming home
    Iґm never going to come back home
    
    Комбинация2:
    "I’m not coming home" 
    E------------------------------------------
    B------------------------------------------
    G------------------------------------------
    D-|-9-9-9-9-9-9-9-9-12-12-12-12-12-12-12-12
    A-|-9-9-9-9-9-9-9-9-12-12-12-12-12-12-12-12
    E-|-7-7-7-7-7-7-7-7-10-10-10-10-10-10-10-10-
    
    Комбинация3 четырежды с текстом:
    I got too fucked up again
    and passed out on the plane
    tried to forget you
    I canґt forget you
    No sleep on this flight
    Iґll think about the nights
    we had to get through
    how did we get through?
    
    Комбинация3:
    E--------------------------------------------
    B--------------------------------------------
    G--------------------------------------------
    D-|--5-5-5-5-5-5-5-5--11-11-11-11-12-12-12-12
    A-|--5-5-5-5-5-5-5-5--11-11-11-11-12-12-12-12
    E-|--7-7-7-7-7-7-7-7----9--9--9--9--10-10-10-10
    
    Комбинация1 дважды с текстом:
    Iґll never ask permission from you
    fuck off Iґm not listening to you
    Комбинация2 дважды с текстом:
    Iґm not coming home
    Iґm never going to come back home
    Iґll run away
    Сыграть Комбинацию4 шесть раз с текстом(2 раза без текста,
     а потом по строке на тройную комбинацию):
    I think itґs time that I should leave
    I think itґs time that I should leave
    I think itґs time that I should leave
    I think itґs time that I should leave
    
    Комбинация4 
    E---------------------------------------
    B---------------------------------------
    G-|-9-9-9-9-9-9-9-9--11-11-11-11-7-7-7-7--
    D-|-9-9-9-9-9-9-9-9--11-11-11-11-7-7-7-7--
    A-|-7-7-7-7-7-7-7-7---9--9--9--9---5-5-5-5--
    E---------------------------------------
    
    Играем Комбинацию5, за ней Комбинацию6
    Комбинация5
    E------------------------------------------
    B------------------------------------------
    G-|-14------13------7-----/18-----16------14-----
    D-|---(x8)----(x4)----(x4)---(x8)----(x4)---(x4)-
    A-|-12------11------9-----/16-----14------12-----
    E------------------------------------------
    Комбинация6
    E------------------------------------------
    B------------------------------------------
    G-|-14------13------7-----/18-----16------19-----
    D-|---(x8)----(x4)----(x4)---(x8)----(x4)---(x4)-
    A-|-12------11------9-----/16-----14------17-----
    E------------------------------------------
    Комбинация1 дважды с текстом:
    Iґll never ask permission from you
    fuck off Iґm not listening to you
    Комбинация2 дважды с текстом::
    Iґm not coming home
    Iґm never going to come back home
    Iґll run away
    Мелодия с текстом:
    I think itґs time for me to leave (Iґll run away)
    I think itґs time for me to leave (Iґll run away)
    I think itґs time for me to leave (Iґll run away)
    I think itґs time for me to leave (Iґll run away)
     

    Тональность:

    Нет текста!



    Назад
    Рекомендуем посмотреть другие песни исполнителя «Blink 182»:

    • Комментарии Facebook ()
    • Комментарии ВКонтакте



    Добавить в Избранное Браузера
    Сохранить здесь Очистить


    x

    0


    +
    -

    +
    -

    -

    Авторизация





    Зарегистрироваться

    M

    Дата и время

    • 05:03:17
       

    Социальные ссылки


    Наши приложения

    • Muzbank App Play Market
    • Muzbank Amazon App