MUZBANK



A Most Complete Bank Of Music Information

МУЗЫКАЛЬНО-ИНФОРМАЦИОННЫЙ БАНК

Поиск по сайту







    BBlink 182 • The Rock Show (аккорды и текст - chords & lyrics)


    250

    Print

    Видео «The Rock Show (Blink 182)»

    Видео клипы к песне подбираются автоматически сайтом youtube. Возможны некоторые несоответствия клипов песне.

    ↑ Спрятать рекламу ↑



    Download



     
    
    
    Привет, Девушки, это опять Я!!!
    Ну чо, играем BLINK182
    THe rock show
    Пишу как играет мой братан TOM
    
    e|---------------------
     |---------------------
     |---------------------
     |-----2-2-2-0-0-------
     |--000---------4-0-2-0            
    e|---------------------            
                                       /  -2раза  
    e|---------------------------     / вступление
     |---------------------------
     |---------------------------
     |------2-2-2-0-0-0---0-4-2-0
     |--000----------------------
    e|---------------------------
    Куплет
    e|-----------------------------
     |-----------------------------
     |-------------------7xxx--9xxx
     |--7xxxxxxx--7xxxx--7xxx--9xxx
     |--7xxxxxxx--7xxxx--5xxx--7xxx
    e|--5xxxxxxx--5xxxx------------
                  сдесь Mark начинает петь 
    Эта байда играется 2 раза затем опять Вступление 2раза.
    
    Теперь партия Маrка на басу естественно!!
    Куплет
    e|----------------------  
     |--------00000-222222--   
     |--000000--------------   /2раза
     |----------------------  /  
    
    Припев.
    e|---------------------
     |--22-----------------
     |--22----77-----------3раза
     |--22-44-77-----------
     |-----44-55-----------
     |-----22--------------
       
     Продолжение выше написаново
    e|--------------------------
     |--------------------------2
     |--4xxxxx7xxxx4xxx7xxx4xxx72 конец куплета.
     |--4xxxxx7xxxx4xxx7xxx4xxx72
     |--2xxxxx5xxxx2xxx5xxx2xxx5-
    e|---------------------------
     Затем опять вступение. 2 раза
           опять куплет!
           опять припев! 
     Solo
    e|--------------------
     |---2-2-2-5-2-2-3-3--
     |--- 2-2-2-2-2-2-2-2-
     |--------------------
     |--------------------
     |--------------------
    
    припев.
    вступление.
    
    
    Hanging out behind the club on the weekends
    Acting stupid, getting drunk with my best friends
    I couldnґt wait for the summer and the Warped Tour
    I remember that itґs the first time that I saw her there
    
    Sheґs getting kicked out of school cause sheґs failing
    Iґm kinda nervous, cause I think all her friends hate me
    Sheґs the one, sheґll always be there
    She took my hand and I made it I swear
    
    Because I fell in love with the girl at the rock show
    She said "what?" and I told her that I didnґt know
    Sheґs so cool, better sneak me through her window
    Everythingґs better when sheґs around
    Canґt wait until her parents go out of town
    I fell in love with the girl at the rock show
    
    When we said we were gonna move to Vegas
    I remember the look her mother gave us
    17 without a purpose or direction
    We donґt owe anyone a fuckin explanation
    
    I fell in love with the girl at the rock show
    She said "what?" and I told her that I didnґt know
    Sheґs so cool, better sneak me through her window
    Everythingґs better when sheґs around
    Canґt wait until her parents go out of town
    I fell in love with the girl at the rock show
    
    Black and white picture of her on my wall
    I waited for her call, she always kept me waiting
    And if I ever got another chance Iґd still ask her to dance
    Because she kept me waiting
    
    I fell in love with the girl at the rock show
    She said "what?" and I told her that I didnґt know
    Sheґs so cool, better sneak me through her window
    Everythingґs better when sheґs around
    Canґt wait until her parents go out of town
    I fell in love with the girl at the rock show
    
    with the girl at the rock show
    with the girl at the rock show
    (Iґll never forget tonight)
    with the girl at the rock show......   
    
    Всю БАЙДУ ПОДОБРАЛ PUTIN!!  голосуйте за ОтЛиЧнО!!
     

    Тональность:

    Нет текста!



    Назад
    Рекомендуем посмотреть другие песни исполнителя «Blink 182»:

    • Комментарии Facebook ()
    • Комментарии ВКонтакте



    Добавить в Избранное Браузера
    Сохранить здесь Очистить


    x

    0


    +
    -

    +
    -

    -

    Авторизация





    Зарегистрироваться

    M

    Дата и время

    • 19:24:07
       

    Социальные ссылки


    Наши приложения

    • Muzbank App Play Market
    • Muzbank Amazon App