MUZBANK



A Most Complete Bank Of Music Information

МУЗЫКАЛЬНО-ИНФОРМАЦИОННЫЙ БАНК

Поиск по сайту







    BBlink 182 • Toast And Bananas (аккорды и текст - chords & lyrics)


    300

    Print

    Видео «Toast And Bananas (Blink 182)»

    Видео клипы к песне подбираются автоматически сайтом youtube. Возможны некоторые несоответствия клипов песне.

    ↑ Спрятать рекламу ↑



    Download


     
    
    
    band:blink182
    song:toast and bananas
    album:cheshire cat
    track:11
    tabber:dale kracker
    e-mail:somethingsupthere@hotmail.com
    
    i dont know if cheshire cat toast and bananas 
    is different 2 the buddah version but this is 
    pretty much how its played in 1994 version
    
    intro (theres some muting that you can figure out)
    e---------------------------------------------|
    b---------------------------------------------|
    g----------------------------6/7-7777---------|
    d-77777777-22222222-44444444-6/7-7777---------|
    a-77777777-22222222-44444444-4/5-5555-5-4-2-0-|
    e-55555555-00000000-22222222------------------|
    
    pre-verse (double picked)
    e--------------------------------|
    b--------------------------------|
    g--------------------------------|
    d----77766-----------------------|
    a-00-------775544--0077755450----|
    e--------------------------------|
    
    verse
    e--------------------------|
    b--------------------------|
    g-------------------77777--|
    d-77777-22222-44444-77777--|
    a-77777-22222-44444-55555--|
    e-55555-00000-22222--------|
    
    chorus
    e---------------------------------------------------|
    b---------------------------------------------------|
    g-----999-111111-77777-------99999-1111111111-77777-|
    d-777-999-111111-77777-77777-99999-1111111111-77777-|
    a-777-777--9-9-9-55555-77777-77777--9-9-9-9-9-55555-|
    e-555------------------55555------------------------|
    
    pre chorus-(..say to me as i tune you out of my mind..)
    e------------------------|
    b------------------------|
    g-------------77777777---|
    d-77777-44444-77777777---|
    a-77777-44444-55555555---|
    e-55555-22222------------|
    
    solo
    e----------------------------------------------------|
    b----------------------------------------------------|
    g----------------------------------------------------|
    d----------------------------------------------------|
    a-02457542-02457542-02457542-24540-02457542-02457542-|
    e----------------------------------------------------|
    
    (cont)
    e---------------------------9-------------9-------------9----|
    b------------------10101010---12-10101010---12-10101010---12-|
    g------------------------------------------------------------|
    d------------------------------------------------------------|
    a-02457542-24540---------------------------------------------|
    e------------------------------------------------------------|
    
    (cont)
    e--1212-1010-9-12-----------9--------------9-----|
    b------------------10101010---12--10101010---12--|
    g------------------------------------------------|
    d------------------------------------------------|
    a------------------------------------------------|
    e------------------------------------------------|
    
    (cont)
    e----------------------------|
    b----9-9h10-12-----9-9h10----|
    g--9------------9---------9--|
    d----------------------------|
    a----------------------------|
    e----------------------------|
    
    so anyway thats about it
    any questions or comments e-mail me
    and please rate this tab
    
    lyrics: (my pants are off right now)
    do you wanna know what i think of you,
    cause your not the way i thought you should be,
    to take back what you said,its time to fix,
    its time to fix your head,and now all alone,
    one lessons to,ive never been better off living lonely,
    to listen to what you say,i couldnt care less of what u say,
    why do you think he acted this,i bet you never really
    thought at all,is that what you compreh,is that why
    i call your anger 4 me,i want you to know,
    i do wanna live,now im a man whos just really small,
    to listen to what you say,i couldnt care less of what
    you say to me as i walk alone,id much rather be writing
    from a,to be just another one narly to,
    (this is the little pre chorus part)
    what you say to me as i tune you put of my mind,
    i wont bend over backwards,or take another step at you,
    heres from you again,.................................
     

    Тональность:

    Нет текста!



    Назад
    Рекомендуем посмотреть другие песни исполнителя «Blink 182»:

    • Комментарии Facebook ()
    • Комментарии ВКонтакте



    Добавить в Избранное Браузера
    Сохранить здесь Очистить


    x

    0


    +
    -

    +
    -

    -

    Авторизация





    Зарегистрироваться

    M

    Дата и время

    • 09:09:03
       

    Социальные ссылки


    Наши приложения

    • Muzbank App Play Market
    • Muzbank Amazon App