MUZBANK



A Most Complete Bank Of Music Information

МУЗЫКАЛЬНО-ИНФОРМАЦИОННЫЙ БАНК

Поиск по сайту







    BBlink 182 • Untitled (аккорды и текст - chords & lyrics)


    331

    Print

    Видео «Untitled (Blink 182)»

    Видео клипы к песне подбираются автоматически сайтом youtube. Возможны некоторые несоответствия клипов песне.

    ↑ Спрятать рекламу ↑



    Download



    gtrs. 1 & 2
    E|-----------|---------------|-----------|---------------|
    B|-----------|---------------|-----------|---------------|
    G|---------^-|---------------|-----------|---------------| Play
    D|-4-4-4-4-4-|-4-4-4-4-4-4-4-|---------^-|---------------|  6x
    A|-2-2-2-2-2-|-2-2-2-2-2-2-2-|-2-2-2-2-2-|-4-4-4-4-4-4-4-|
    E|-----------|---------------|-0-0-0-0-0-|-2-2-2-2-2-2-2-|
    
     gtr. 1
    E|------------|-----------|-----------|-----------|-----------|
    B|------------|-----------|-----------|-----------|-----------|
    G|----------9-|-9-----94--|-4-----4/6-|-6-----6/8-|-8-----8/9-|
    D|-6------6/9-|-9---------|-----------|-----------|-----------|
    A|-6------6/7-|-7-----72--|-2-----2/4-|-4-----4/6-|-6-----6/7-|
    E|-4------4/--|-----------|-----------|-----------|-----------|
    
     gtr. 2
    E|-------|---|---|---|---|
    B|-------|---|---|---|---|
    G|-----9-|-9-|-4-|---|---|
    D|-6-6/9-|-9-|-4-|-4-|-6-|
    A|-6-6/7-|-7-|-2-|-4-|-6-|
    E|-4-4/--|---|---|-2-|-4-|
    
    E|-----------|------------|-----|
    B|-----------|------------|-----|
    G|-9------94-|-4------4/6-|-6-4-|
    D|-----------|------------|-----|
    A|-7------72-|-2------2/4-|-4-2-|
    E|-----------|------------|-----|
    
    E|---|---|-------|------------------|-----------------|
    B|---|---|-------|------------------|-----------------|
    G|-9-|-4-|-------|*-4-4-4-4-4-4-4-4-|-----------------|
    D|-9-|-4-|-4--2--|*-4-4-4-4-4-4-4-4-|-6-6-6-6-6-6-6-6-|
    A|-7-|-2-|-4--2--|--2-2-2-2-2-2-2-2-|-6-6-6-6-6-6-6-6-|
    E|---|---|-2--0--|------------------|-4-4-4-4-4-4-4-4-|
    
    (gtr. 2)
    E|-----------------|------------------|------------------|
    B|-----------------|------------------|------------------|
    G|-----------------|-9-9-9-9-8-8-8-8-*|*-4-4-4-4-4-4-4-4-|
    D|-4-4-4-4-4-4-4-4-|-9-9-9-9-8-8-8-8-*|*-4-4-4-4-4-4-4-4-|
    A|-4-4-4-4-4-4-4-4-|-7-7-7-7-6-6-6-6--|--2-2-2-2-2-2-2-2-|
    E|-2-2-2-2-2-2-2-2-|------------------|------------------|
     gtr. 1
    E|------------------|
    B|------------------|
    G|*-4-4-4-4-4-4-4-4-|
    D|*-----------------|
    A|--2-2-2-2-2-2-2-2-|
    E|------------------|
    
     (gtr. 2)
    E|-----------------|------------------|-----------------|
    B|-----------------|------------------|-----------------|
    G|-----------------|-----------------*|-----------------|
    D|-2-2-2-2-2-2-2-2-|-4-4-4-4-4-4-4-4-*|-6-6-6-6-6-6-6-6-|
    A|-2-2-2-2-2-2-2-2-|-4-4-4-4-4-4-4-4--|-6-6-6-6-6-6-6-6-|
    E|-0-0-0-0-0-0-0-0-|-2-2-2-2-2-2-2-2--|-4-4-4-4-4-4-4-4-|
    
     (gtr. 1)	     (not part of Fig. 1)
    E|-----------------|
    B|-----------------|
    G|-----------------|
    D|-6-6-6-6-6-6-6-6-|
    A|-----------------|
    E|-4-4-4-4-4-4-4-4-|
    
    								 end Fig. 1
    E|-----------------|-----------------|-----------------|
    B|-----------------|-----------------|-----------------|
    G|-9-9-9-9-9-9-9-9-|-4-4-4-4-4-4-4-4-|-----------------|
    D|-9-9-9-9-9-9-9-9-|-4-4-4-4-4-4-4-4-|-4-4-4-4-4-4-4-4-|
    A|-7-7-7-7-7-7-7-7-|-2-2-2-2-2-2-2-2-|-4-4-4-4-4-4-4-4-|
    E|-----------------|-----------------|-2-2-2-2-2-2-2-2-|
    
    E|-----------------|-----------------|-----------------|
    B|-----------------|-----------------|-----------------|
    G|-9-9-9-9-9-9-9-9-|-4-4-4-4-4-4-4-4-|-6-6-6-6-6-6-6-6-|
    D|-----------------|-----------------|-----------------|
    A|-7-7-7-7-7-7-7-7-|-2-2-2-2-2-2-2-2-|-4-4-4-4-4-4-4-4-|
    E|-----------------|-----------------|-----------------|
    
    E|-----------------|-----------------|-----------------|
    B|-----------------|-----------------|-----------------|
    G|-----------------|-9-9-9-9-9-9-9-9-|-4-4-4-4-4-4-4-4-|
    D|-6-6-6-6-6-6-6-6-|-9-9-9-9-9-9-9-9-|-4-4-4-4-4-4-4-4-|
    A|-6-6-6-6-6-6-6-6-|-7-7-7-7-7-7-7-7-|-2-2-2-2-2-2-2-2-|
    E|-4-4-4-4-4-4-4-4-|-----------------|-----------------|
    
    E|-----------------|-----------------|-----------------|
    B|-----------------|-----------------|-----------------|
    G|-8-8-8-8-8-8-8-8-|-9-9-9-9-9-9-9-9-|-4-4-4-4-4-4-4-4-|
    D|-----------------|-----------------|-----------------|
    A|-6-6-6-6-6-6-6-6-|-7-7-7-7-7-7-7-7-|-2-2-2-2-2-2-2-2-|
    E|-----------------|-----------------|-----------------|
    
     gtrs. 1 & 2
    E|-----------------|-----------------|--------|--------|-------|
    B|-----------------|-----------------|--------|--------|-------|
    G|-----------------|-----------------|-4------|-(4)----|--(4)--|
    D|-4-4-4-4-4-4-4-4-|-2-2-2-2-2-2-2-2-|--------|--------|-------|
    A|-4-4-4-4-4-4-4-4-|-2-2-2-2-2-2-2-2-|-2------|-(2)----|--(2)--|
    E|-2-2-2-2-2-2-2-2-|-0-0-0-0-0-0-0-0-|--------|--------|-------|
     gtrs. 3 & 4
    E|-----------------|-----------------|--------|--------|-------|
    B|-----------------|-----------------|--------|--------|-------|
    G|-6-6-6-6-6-6-6-6-|-4-4-4-4-4-4-4-4-|*-------|--------|-------|
    D|-----------------|-----------------|*---1-4-|--4-2-1-|---1-4-|
    A|-4-4-4-4-4-4-4-4-|-2-2-2-2-2-2-2-2-|--2-----|--------|-------|
    E|-----------------|-----------------|--------|--------|-0-----|
    
    (gtrs. 3 & 4)   gtrs. 1 & 2
    E|---------|  -----------------|-^-|--|
    B|---------|  -----------------|-5-|--|
    G|--------*|  -4-4-4-4-4-4-4-4-|---|--|
    D|--4-2-1-*|  -----------------|---|--|
    A|---------|  -----------------|---|--|
    E|---------|  -----------------|---|--|
    
    gtr. 1, w/gtr. 2 - Fig. 1, 2x
    E|------------------|-----------------|-----------------|
    B|------------------|-----------------|-----------------|
    G|*-8-8-8-8-8-8-8-8-|-9-9-9-9-9-9-9-9-|-8-8-8-8-8-8-8-8-|
    D|*-----------------|-----------------|-----------------|
    A|--6-6-6-6-6-6-6-6-|-7-7-7-7-7-7-7-7-|-6-6-6-6-6-6-6-6-|
    E|------------------|-----------------|-----------------|
    
    E|-----------------|------------------|-----------------|
    B|-----------------|------------------|-----------------|
    G|-6-6-6-6-6-6-6-6-|*-8-8-8-8-8-8-8-8-|-6-6-6-6-6-6-6-6-|
    D|-----------------|*-----------------|-----------------|
    A|-4-4-4-4-4-4-4-4-|--6-6-6-6-6-6-6-6-|-4-4-4-4-4-4-4-4-|
    E|-----------------|------------------|-----------------|
    
     gtr. 2
    E|------------------|-----------------|
    B|------------------|-----------------|
    G|*-4-4-4-4-4-4-4-4-|-----------------|
    D|*-4-4-4-4-4-4-4-4-|-4-4-4-4-4-4-4-4-|
    A|--2-2-2-2-2-2-2-2-|-4-4-4-4-4-4-4-4-|
    E|------------------|-2-2-2-2-2-2-2-2-|
    
     Play 3x
    E|------|
    B|-^----|
    G|-4----|
    D|------|
    A|-2----|
    E|------|
    
    E|------|
    B|-^----|
    G|-4----|
    D|-4----|
    A|-2----|
    E|------|
    
     Untitled
    I think of awhile ago
    we might have had it all
    I was so stupid then
    you needed time to grow
    But now just as things change
    as well my feelings do
    in time things rearrange
    I am so sick of chasing you
    
    But what do I get ?cause I just seem to lose
    you make me regret those times I spent with you
    and playing those games as I wait for your call
    and now I give up, so goodbye and so long
    
    It?s not a change of pace
    this time I?ll get it right
    it?s not a change of taste
    I was the one there last night
    
    You have your other friends
    they were there when you cried
    didn?t mean to hurt you then
    best friends just won?t leave your side
    
    But what do I get ?cause I just seem to lose
    you make me regret those times I spent with you
    and playing those games as I wait for your call
    and now I give up, so goodbye and so long
    
    It?s not a change of pace
    this time I?ll get it right
    it?s not a change of taste
    I was the one there last night
    
    When I needed you most
    when I needed a friend
    you let me down now
    like I let you down then
    
    So sorry, it?s over
    

    Тональность:

    Нет текста!



    Назад
    Рекомендуем посмотреть другие песни исполнителя «Blink 182»:

    • Комментарии Facebook ()
    • Комментарии ВКонтакте



    Добавить в Избранное Браузера
    Сохранить здесь Очистить


    x

    0


    +
    -

    +
    -

    -

    Авторизация





    Зарегистрироваться

    M

    Дата и время

    • 08:55:35
       

    Социальные ссылки


    Наши приложения

    • Muzbank App Play Market
    • Muzbank Amazon App