MUZBANK



A Most Complete Bank Of Music Information

МУЗЫКАЛЬНО-ИНФОРМАЦИОННЫЙ БАНК

Поиск по сайту







    BBlink 182 • Whats My Age Again (ver 10) (аккорды и текст - chords & lyrics)


    306

    Print

    Видео «Whats My Age Again (ver 10) (Blink 182)»

    Видео клипы к песне подбираются автоматически сайтом youtube. Возможны некоторые несоответствия клипов песне.

    ↑ Спрятать рекламу ↑



    Download


     
    
    
    WHATS MY AGE AGAIN?
    
    
    
    ///////////////////---------------------
    /?/?/?/?/?/?/?/?/?/(((( P A R T   1 ))))????????
    ///////////////////---------------------
    
    
    ((1))
    
    G |----------------------------------------------------|
    U |-------11-----------11-----------11------------11---|
    I |----11----11-----11----11-----11----11------11----11|
    T |--9-------------------------------------------------|
    A |---------------9------------------------------------|
    R |----------------------------9------------11---------|
    
    B |----------------------------------------------------|
    A |----------------------------------------------------|
    S |----------------------------------------------------|
    S |----------------------------------------------------|
    
    ((2))
    
    G |----------------------------------------------------|
    U |-------11-----------11-----------11------------11---|
    I |----11----11-----11----11-----11----11------11----11|
    T |--9-------------------------------------------------|
    A |---------------9------------------------------------|
    R |----------------------------9------------11---------|
    
    B |----------------------------------------------------|
    A |----------------------------------------------------|
    S |----------------------------------------------------|
    S |----------------------------------------------------|
    
    ((3))
    
    G |----------------------------------------------------|
    U |-------11-----------11-----------11------------11---|
    I |----11----11-----11----11-----11----11------11----11|
    T |--9-------------------------------------------------|
    A |---------------9------------------------------------|
    R |----------------------------9------------11---------|
    
    B |----------------------------------------------------|
    A |----------------------------------------------------|
    S |--2--2--2--2----------------4--4--4--4---6--6--6--6-|
    S |---------------2--2--2--2---------------------------|
    
    ((4))
    
    G |----------------------------------------------------|
    U |-------11-----------11-----------11------------11---|
    I |----11----11-----11----11-----11----11------11----11|
    T |--9-------------------------------------------------|
    A |---------------9------------------------------------|
    R |----------------------------9------------11---------|
    
    B |----------------------------------------------------|
    A |----------------------------------------------------|
    S |--2--2--2--2----------------4--4--4--4---6--6--6--6-|
    S |---------------2--2--2--2---------------------------|
    
    ((5))
    
    G |----------------------------------------------------|
    U |-------11-----------11-----------11------------11---|
    I |----11----11-----11----11-----11----11------11----11|
    T |--9-------------------------------------------------|
    A |---------------9------------------------------------|
    R |----------------------------9------------11---------|
    
    B |----------------------------------------------------|
    A |----------------------------------------------------|
    S |--2--2--2--2----------------4--4--4--4---6--6--6--6-|
    S |---------------2--2--2--2---------------------------|
    
    ((6))
    
    G |----------------------------------------------------|
    U |-------11-----------11-----------11------------11---|
    I |----11----11-----11----11-----11----11------11----11|
    T |--9-------------------------------------------------|
    A |---------------9------------------------------------|
    R |----------------------------9------------11---------|
    
    B |----------------------------------------------------|
    A |----------------------------------------------------|
    S |--2--2--2--2----------------4--4--4--4---6--6--6--6-|
    S |---------------2--2--2--2---------------------------|
    
    ((7))
    
    G |----------------------------------------------------|
    U |-------11-----------11-----------11------------11---|
    I |----11----11-----11----11-----11----11------11----11|
    T |--9-------------------------------------------------|
    A |---------------9------------------------------------|
    R |----------------------------9------------11---------|
    
    B |----------------------------------------------------|
    A |----------------------------------------------------|
    S |--2--2--2--2----------------4--4--4--4---6--6--6--6-|
    S |---------------2--2--2--2---------------------------|
    
    ((8))
    
    G |----------------------------------------------------|
    U |-------11-----------11-----------11------------11---|
    I |----11----11-----11----11-----11----11------11----11|
    T |--9-------------------------------------------------|
    A |---------------9------------------------------------|
    R |----------------------------9------------11---------|
    
    B |----------------------------------------------------|
    A |----------------------------------------------------|
    S |--2--2--2--2----------------4--4--4--4---4--4--4--4-|
    S |---------------2--2--2--2---------------------------|
    
    ((9))
    
    G |--------------------------|
    U |-------11-----------11----|
    I |----11----11-----11----11-|
    T |--9-----------------------|
    A |---------------9----------|
    R |--------------------------|
    
    B |--------------------------|
    A |--------------------------|
    S |--2---2---2---2---2---2--2|
    S |--------------------------|
    
    
    ///////////////////---------------------
    /?/?/?/?/?/?/?/?/?/(((( P A R T   2 ))))????????
    ///////////////////---------------------
    
    
    ((10))
    
    G |--------------------------|
    U |--------------------------|
    I |--------66----88----444---|
    T |---4----66----88----444---|
    A |---4----44----66----222---|
    R |---2----------------------|
    
    B |--------------------------|
    A |---4----------------------|
    S |--------44----66---2222---|
    S |--------------------------|
    
    ((11))
    
    G |--------------------------|
    U |--------------------------|
    I |--------66----88----444---|
    T |---4----66----88----444---|
    A |---4----44----66----222---|
    R |---2----------------------|
    
    B |--------------------------|
    A |---4----------------------|
    S |--------44----66---2222---|
    S |--------------------------|
    
    ((12))
    
    G |--------------------------|
    U |--------------------------|
    I |--------66----88----444---|
    T |---4----66----88----444---|
    A |---4----44----66----222---|
    R |---2----------------------|
    
    B |--------------------------|
    A |---4----------------------|
    S |--------44----66---2222---|
    S |--------------------------|
    
    ((13))
    
    G |-----------------------------------|
    U |-----------------------------------|
    I |--------66----88888888----66666666~|
    T |---4----66----88888888----66666666~|
    A |---4----44----66666666----44444444~|
    R |---2-------------------------------|
    
    B |-----------------------------------|
    A |---4-------------------------------|
    S |--------44----66666666----44444444~|
    S |-----------------------------------|
    
    
    ///////////////////---------------------
    /?/?/?/?/?/?/?/?/?/(((( P A R T   3 ))))????????
    ///////////////////---------------------
    
    
    ((14))
    
        P A L M * M U T E D
    G |---------------------------|
    U |---------------------------|
    I |---4444--------6666--8888--|
    T |---4444--4444--6666--8888--|
    A |---2222--4444--4444--6666--|
    R |---------2222--------------|
       N O T * P M
    B |---------------------------|
    A |---------------------------|
    S |---2222--------4444--6666--|
    S |---------2222--------------|
    
    ((15))
    
        P A L M * M U T E D
    G |---------------------------|
    U |---------------------------|
    I |---4444--------6666--8888--|
    T |---4444--4444--6666--8888--|
    A |---2222--4444--4444--6666--|
    R |---------2222--------------|
       N O T * P M
    B |---------------------------|
    A |---------------------------|
    S |---2222--------4444--6666--|
    S |---------2222--------------|
    
    ((16))
    
        P A L M * M U T E D
    G |---------------------------|
    U |---------------------------|
    I |---4444--------6666--8888--|
    T |---4444--4444--6666--8888--|
    A |---2222--4444--4444--6666--|
    R |---------2222--------------|
       N O T * P M
    B |---------------------------|
    A |---------------------------|
    S |---2222--------4444--6666--|
    S |---------2222--------------|
    
    ((17))
    
        P A L M * M U T E D
    G |-----------------------------------|
    U |-----------------------------------|
    I |---4444--------66666666--44444444--|
    T |---4444--4444--66666666--44444444--|
    A |---2222--4444--44444444--22222222--|
    R |---------2222----------------------|
       N O T * P M
    B |-----------------------------------|
    A |-----------------------------------|
    S |---2222--------44444444--22222222--|
    S |---------2222----------------------|
    
    
    ///////////////////---------------------
    /?/?/?/?/?/?/?/?/?/(((( P A R T   4 ))))????????
    ///////////////////---------------------
    
    
    ((18))
    
    G |--------------------------|
    U |--------------------------|
    I |--------66----88----444---|
    T |---4----66----88----444---|
    A |---4----44----66----222---|
    R |---2----------------------|
    
    B |--------------------------|
    A |---4----------------------|
    S |--------44----66---2222---|
    S |--------------------------|
    
    ((19))
    
    G |--------------------------|
    U |--------------------------|
    I |--------66----88----444---|
    T |---4----66----88----444---|
    A |---4----44----66----222---|
    R |---2----------------------|
    
    B |--------------------------|
    A |---4----------------------|
    S |--------44----66---2222---|
    S |--------------------------|
    
    ((20))
    
    G |--------------------------|
    U |--------------------------|
    I |--------66----88----444---|
    T |---4----66----88----444---|
    A |---4----44----66----222---|
    R |---2----------------------|
    
    B |--------------------------|
    A |---4----------------------|
    S |--------44----66---2222---|
    S |--------------------------|
    
    ((21))
    
    G |-----------------------------------|
    U |-----------------------------------|
    I |--------66----88888888----66666666~|
    T |---4----66----88888888----66666666~|
    A |---4----44----66666666----44444444~|
    R |---2-------------------------------|
    
    B |-----------------------------------|
    A |---4-------------------------------|
    S |--------44----66666666----44444444~|
    S |-----------------------------------|
     

    Тональность:

    Нет текста!



    Назад
    Рекомендуем посмотреть другие песни исполнителя «Blink 182»:

    • Комментарии Facebook ()
    • Комментарии ВКонтакте



    Добавить в Избранное Браузера
    Сохранить здесь Очистить


    x

    0


    +
    -

    +
    -

    -

    Авторизация





    Зарегистрироваться

    M

    Дата и время

    • 13:39:26
       

    Социальные ссылки


    Наши приложения

    • Muzbank App Play Market
    • Muzbank Amazon App