MUZBANK



A Most Complete Bank Of Music Information

МУЗЫКАЛЬНО-ИНФОРМАЦИОННЫЙ БАНК

Поиск по сайту







    BBlondie • Maria (аккорды и текст - chords & lyrics)


    679

    Print

    Видео «Maria (Blondie)»

    Видео клипы к песне подбираются автоматически сайтом youtube. Возможны некоторые несоответствия клипов песне.

    ↑ Спрятать рекламу ↑



    Download



     
    
    
    Song tittle: Маrна
    Band: Blondie
    Album: No exit
    
    Transcribed by: Sergio Enrico
    
    If you have any correction or comments, please, e-mail me: sergioenrico@yahoo.com
    
    Standard Tuning(EADG)
    
      Intro                                                                   
    G||-------------|
    D||-----4-------|
    A||-5-7---7-5-7-|
    E||-------------|
    
      Verse                       
    G||-------------------------------------------------------------------|
    D||----------------6-9------------------------------------------------|
    A||-0--0-0-------7-------------5--5-5--0--0-0----------5--5-5--5--5-5-|
    E||---------0--0-------2--2-2------------------0--0-0-----------------|
    
    Pre-Chorus
    G||-----------------------------------------------------|
    D||-------------------------4-4---4-4---4--4-6-7-6-4----|
    A||-5-5---5-5---7-7---7-7-4-----4-----4--------------7--|
    E||-----5-----7-----7-----------------------------------|
    
    
    Chorus
    G||------------------------------------------------------------------|
    D||------------------------------------------------------------------|
    A||-0-0-0-0-0-0-0-0---------------------------------5-5-5-5-5-5-5-5--|
    E||-----------------0-0-0-0-0-0-0-0-2-2-2-2-2-2-2-2------------------|
    
    |------------------------------------------------------------------|
    |------------------------------------------------------------------|
    |-0-0-0-0-0-0-0-0-----------------5-5-5-5-5-5-5-5-5-5-5-5-5-5-5-5--|
    |-----------------0-0-0-0-0-0-0-0----------------------------------|
    
    Guitar solo
    G||------------------------------------------------------------------|
    D||------------------------------------------------------------------|
    A||-2--2-2--2--2-2------------------2--2-2--2--2-2--5--5-5--7--7-7---|
    E||-----------------2--2-2--2--2-2-----------------------------------|
    
    
    
    Song Structure:
    Intro (x1)
    Verse (x2)
    Pre-chorus (x2)
    Chorus (x2)
    Verse (x2)
    Pre-chorus (x2)
    Chorus (x2)
    Pre-chorus (x2)
    Verse (x2)
             Drums
    Chorus (x2)
    Pre-chorus (x2)
    Guitar solo (x1)
    Chorus (fade out)
     

    Тональность:

    Нет текста!



    Назад
    Рекомендуем посмотреть другие песни исполнителя «Blondie»:

    • Комментарии Facebook ()
    • Комментарии ВКонтакте



    Добавить в Избранное Браузера
    Сохранить здесь Очистить


    x

    0


    +
    -

    +
    -

    -

    Авторизация





    Зарегистрироваться

    M

    Дата и время

    • 11:34:09
       

    Социальные ссылки


    Наши приложения

    • Muzbank App Play Market
    • Muzbank Amazon App