MUZBANK



A Most Complete Bank Of Music Information

МУЗЫКАЛЬНО-ИНФОРМАЦИОННЫЙ БАНК

Поиск по сайту







    BBloodhound Gang • Bad Touch (аккорды и текст - chords & lyrics)


    309

    Print

    Видео «Bad Touch (Bloodhound Gang)»

    Видео клипы к песне подбираются автоматически сайтом youtube. Возможны некоторые несоответствия клипов песне.

    ↑ Спрятать рекламу ↑



    Download



     (4/4)(123 bpm)
    Standard tuning
    
    * - note held for an eighth beat
    r - eighth rest
    h - hammer-on
    
    Intro (bridge): (x2)(0:25)
    |--------------10*-*----|---10-10---------------|------15-1512----------|
    |10-10-10-1013-------10-|13-------13-r-10-13-12-|--------------15*-*----|
    |-----------------------|-----------------------|13-13---------------15-|
    |-----------------------|-----------------------|-----------------------|
    
    |------------------------|
    |13-15-15-13-----13h15---|
    |-------------15---------|
    |------------------------|
    
    Verse (chorus/outro): (x4)(0:41)
    |--------------------|------------------------|----------------|
    |--10---10---10---10-|---13----13----13----13-|--8---8---8---8-|
    |--------------------|------------------------|----------------|
    |8----8----8----8----|11----11----11----11----|6---6---6---6---|
    
    |----------------|
    |--6---6---6---6-|
    |----------------|
    |4---4---4---4---|
    
    Chorus (x4)
    Bridge (x2)
    Verse (x4)
    Chorus (x4)
    Rest for eight measures
    Outro (x8)(fades on 8th repeat)
    ===========Artist: Bloodhound Gang
    Song: The Bad Touch
    Tabbed by: Dan Rowden
    
    
    Main Riff (off-beat rhythm):
    G|---------------------------------|
    D|---------1-1-1-1-----------------|
    A|-3-3-3-3---------1-1-1-1---------|
    E|-------------------------4-4-4-4-| 

    Тональность:

    Нет текста!



    Назад
    Рекомендуем посмотреть другие песни исполнителя «Bloodhound Gang»:

    • Комментарии Facebook ()
    • Комментарии ВКонтакте



    Добавить в Избранное Браузера
    Сохранить здесь Очистить


    x

    0


    +
    -

    +
    -

    -

    Авторизация





    Зарегистрироваться

    M

    Дата и время

    • 17:26:17
       

    Социальные ссылки


    Наши приложения

    • Muzbank App Play Market
    • Muzbank Amazon App