MUZBANK



A Most Complete Bank Of Music Information

МУЗЫКАЛЬНО-ИНФОРМАЦИОННЫЙ БАНК

Поиск по сайту







    BBlue Oyster Cult • We Gotta Get Out Of This Place (аккорды и текст - chords & lyrics)


    290

    Print

    Видео «We Gotta Get Out Of This Place (Blue Oyster Cult)»

    Видео клипы к песне подбираются автоматически сайтом youtube. Возможны некоторые несоответствия клипов песне.

    ↑ Спрятать рекламу ↑



    Download


     
    
    
    We Gotta Get Out Of This Place
    -Blue Oyster Cult
    Tabbed by Joey Lombardi (permanentwaves@hotmail.com)
    
    Standard Tuning (G,D,A,E)
    
    
    Verse
    
    G|------------------------------|
    D|---------8-7------------------|
    A|----10-------10-8-------------|
    E|-8-----8----------------------|
    
    Prechorus variant
    
    G|------------------------------|
    D|------------------------------|
    A|----10------------------------|
    E|-8-----8-8~--6~---------------|
    
    Chorus
    
    G|--------------------------------------------------------|
    D|---------------03--------------03-----------------------|
    A|-----0000111133------0000----33------0000111133035~~~---|
    E|-1111------------1111----3333----1111-------------------|
    
    PostChorus/Guitar Solo
    
    G|-----------------------|
    D|-3331111-------25------|
    A|--------0111333--------|
    E|-----------------------|
    
    Bridge
    
    G|--------------------------------|
    D|--------------------------------|
    A|-3-3----3-3----3-3----3-3-------|
    E|--------------------------------|
    
    End on a C
     

    Тональность:

    Нет текста!



    Назад
    Рекомендуем посмотреть другие песни исполнителя «Blue Oyster Cult»:

    • Комментарии Facebook ()
    • Комментарии ВКонтакте



    Добавить в Избранное Браузера
    Сохранить здесь Очистить


    x

    0


    +
    -

    +
    -

    -

    Авторизация





    Зарегистрироваться

    M

    Дата и время

    • 10:04:27
       

    Социальные ссылки


    Наши приложения

    • Muzbank App Play Market
    • Muzbank Amazon App