MUZBANK



A Most Complete Bank Of Music Information

МУЗЫКАЛЬНО-ИНФОРМАЦИОННЫЙ БАНК

Поиск по сайту







    BBlur • Beetlebum (аккорды и текст - chords & lyrics)


    239

    Print

    Видео «Beetlebum (Blur)»

    Видео клипы к песне подбираются автоматически сайтом youtube. Возможны некоторые несоответствия клипов песне.

    ↑ Спрятать рекламу ↑



    Download



     
    
    
    riff 1 4x
    E--------/
    B--------/
    G--------/
    D--------/
    A-x-x-x-x/
    E-x-x-x-x/
    
    riff 2 4x (A5)
    
    E---------------------/
    B---------------------/
    G---------------------/
    D---------------------/
    A-----7-7-7-----7-7-7-/
    E-12/-5-5-5-12/-5-5-5-/
    riff 3 4x (A5 C5 F5 G5 Bb5)
    
    E---------------------|----------------------|----------------------------|
    B---------------------|----------------------|----------------------------|
    G---------------------|----------------------|----------------------------|
    D---------------------|----------------------|----------------------------|
    A-----7-7-7-----7-7-7-|------7-7-7-----7-7-7-|-----10-10-10-----10-10-10--|
    E-12/-5-5-5-12/-5-5-5-|--12/-5-5-5-12/-5-5-5-|-12/--8--8--8-12/--8--8--8--|
    
    
    ----------------------------|-------------------|-------------------|
    ----------------------------|-------------------|-------------------|
    ----------------------------|-------------------|-------------------|
    ----------------------------|-------------------|-------------------|
    -----10-10-10-----10-10-10--|----3-3-3----3-3-3-|----3-3-3----3-3-3-|
    -12/--8--8--8-12/--8--8--8--|-7/-1-1-1-7/-1-1-1-|-7/-1-1-1-7/-1-1-1-|
    
    -------------------|-------------/
    -------------------|-------------/
    -------------------|-------------/
    -------------------|-------------/
    ----5-5-3----5-5-5-|----5-5-3-8-8/
    -7/-3-5-3-7/-3-3-3-|-7/-3-5-3-6-6/
    
    riff 4 (A)
                                Delay off   
    E-------17-17-17-17-17-17-|-17-/
    B-14-14-17-17-17-17-17-17-|-17-/
    G-14-14-14-14-14-14-14-14-|-14-/
    D-14-14-14-14-14-14-14-14-|-14-/
    A-0--0--0--0--0--0--0--0--|-0--/
    E-------------------------|----/
    
    Enjoy!!!
     

    Тональность:

    Нет текста!



    Назад
    Рекомендуем посмотреть другие песни исполнителя «Blur»:

    • Комментарии Facebook ()
    • Комментарии ВКонтакте



    Добавить в Избранное Браузера
    Сохранить здесь Очистить


    x

    0


    +
    -

    +
    -

    -

    Авторизация





    Зарегистрироваться

    M

    Дата и время

    • 17:47:41
       

    Социальные ссылки


    Наши приложения

    • Muzbank App Play Market
    • Muzbank Amazon App