MUZBANK



A MOST COMPLETE BANK OF MUSIC INFORMATION

МУЗЫКАЛЬНО-ИНФОРМАЦИОННЫЙ БАНК







    BBlur • Beetlebum (аккорды и текст - chords & lyrics)


    290

    Print

    Видео «Beetlebum (Blur)»

    Видео клипы к песне подбираются автоматически сайтом youtube. Возможны некоторые несоответствия клипов песне.

    ↑ Спрятать рекламу ↑



    Download



     
    
    
    name=Jose Antonio Rio Ortega
    band=Blur
    song=Beetlebum
    inst_type=Guitar
    body=BEETLEBUM 
    by
    BLUR
    
    INTRO
    e--X--X-
    B--X--X-
    G--X--X-    A LOT OF TIMES
    D--X--X-
    A--X--X-
    E--X--X-
    
    e------------
    B------------
    G------------   x 9
    D------------
    A------------
    E--9/7-3-3-3-
    
    then
    
    e-----------
    B-----------
    G----------- x 3
    D-----------
    A-----------
    E--9/7-3-3-3
    Beetlebum
    
    
    e------------
    B------------
    G------------ x 4
    D------------
    A------------
    E--9/7-4-4-4-
    What youґve done
    
    
    e---------------------
    B---------------------
    G--------------------- 
    D---------------------
    A---------------------
    E--3-1-1-1-|--7/5-1-1-1-
    Sheґs a gun|
               |
       Play this bit once, then the second bit 3 times then:
    
    
    e---------------------------------------------
    B---------------------------------------------
    G---------------------------------------------
    D---------------------------------------------
    A---------------------------------------------
    E--7/5-3-3-3--9/7-3-3-3-9/7-3-3-3---1---3---2-
    Now what you`ve done                Beetlebum
    
    
    The other  4 verses are all the same, when you are about to change to the chorus do this:
    
    e--8-
    B-10-
    G-10- X9
    D-10-
    A--8-
    E--8-
    
    The chorus is pretty easy:
    
         C
    And when she lets me slip away
        G           A           
    She turns me on and 
                    F
    All my violence gone
        G
    Nothing is wrong
           F            
    I just slip away and then
    A#  C
    I am gone
        G            A
    Nothing is wrong
          F          A
    She turns me on
              F             
    I just slip away and then 
          A#   C
    I am gone
    
    
    
    The outro is very very easy
    
    e---------------------
    B--10-----------------
    G------9--------------
    D---------10-10/9-9-0-
    A---------------------
    E---------------------
    
    While you play the outro, your second guitar can play these chords:
    
    A
    He`s on................
    C
    He`s on................
    F
    He`s on................
    G A#
    He`s on................
    
    
    
    If you find any corrections in the song, send`em to
    
    jose_antonio_rio@hotmail.com
    
    Also, i am a MEXICAN boy, so if you find any problem with my english, 
    correct me to the same direction.
    
    And a request, send me a cool name for my band.
     

    Тональность:

    Это должно быть в ТОП-листе! - Топ-лист композиций



    Назад
    Рекомендуем посмотреть другие песни исполнителя «Blur»:

    • Комменты Fb ()
    • Комменты ВК



    Добавить в Избранное Браузера
    Сохранить здесь Очистить


    x

    0


    +
    -

    +
    -

    -

    Авторизация





    Зарегистрироваться

    M

    Дата и время

    • 06:46:14
       

    Социальные ссылки


    Наши приложения

    • Muzbank App Play Market
    • Muzbank Amazon App