MUZBANK



A Most Complete Bank Of Music Information

МУЗЫКАЛЬНО-ИНФОРМАЦИОННЫЙ БАНК

Поиск по сайту







    BBlur • Boys And Girls (аккорды и текст - chords & lyrics)


    458

    Print

    Видео «Boys And Girls (Blur)»

    Видео клипы к песне подбираются автоматически сайтом youtube. Возможны некоторые несоответствия клипов песне.

    ↑ Спрятать рекламу ↑



    Download


    G /---⁄ /---⁄ /---⁄ /---⁄
    G-|---------------------------------------------|
    D-|-----5-----------5-----------5---------3-4-5-|
    A-|---------------------------------------------|
    E-|-3-------1-2-3-------1-2-3-------1-2-3-------|
    
    C /---⁄ /---⁄ /---⁄
    G-|-----5-----------5---------3-4-5-----5---5-|
    D-|-------------------------------------------|
    A-|-3-------1-2-3-------1-2-3---------3---3---|
    E-|-------------------------------------------|
    
    F
    G-|---------------------------------|
    D-|-----3---------3---------3-------|
    A-|---------------------------0-1-2-|
    E-|-1-------0-1-------0-1-----------|
    
    Eb F# F
    G-|-----8⁄------8⁄------8⁄--8-7-8-|
    D-|-------------------------------|
    A-|-6-------6-------6-------------|
    E-|-------------------------------|
    
    Some fun:
    
    Are you a Blur fan? Do you like the Smiths as well? Try playing 'Clover
    Over Dover' from Parklife on your stereo and playing the main riff to
    'Some Girls Are Bigger Than Others' from The Queen Is Dead over the top
    on your guitar. Slow it down a little, and they fit together perfectly.
    
    Coincidence? ...or what?
    
    Some Girls Are Bigger Than Others main riff:
    
    e-|-4-----------------2---|
    B-|---5-4-2---2-5-2-5---4-|
    G-|---------4-------------|
    D-|-----------------------|
    A-|-----------------------|
    E-|-----------------------|
    

    Тональность:

    Нет текста!



    Назад
    Рекомендуем посмотреть другие песни исполнителя «Blur»:

    • Комментарии Facebook ()
    • Комментарии ВКонтакте



    Добавить в Избранное Браузера
    Сохранить здесь Очистить


    x

    0


    +
    -

    +
    -

    -

    Авторизация





    Зарегистрироваться

    M

    Дата и время

    • 21:25:55
       

    Социальные ссылки


    Наши приложения

    • Muzbank App Play Market
    • Muzbank Amazon App