MUZBANK



A Most Complete Bank Of Music Information

МУЗЫКАЛЬНО-ИНФОРМАЦИОННЫЙ БАНК

Поиск по сайту







    BBlur • Bugman (аккорды и текст - chords & lyrics)


    249

    Print

    Видео «Bugman (Blur)»

    Видео клипы к песне подбираются автоматически сайтом youtube. Возможны некоторые несоответствия клипов песне.

    ↑ Спрятать рекламу ↑



    Download



     
    
    
    Bugman - BLUR
    Bass
    Tabbed by miKe. ( suckyoudry@020.co.uk )
    
    Stomp on that Fuzz pedal, crank up the volume and pretend your Alex:
    
    8 bars of guitar intro, then:
    
    Main Riff:
      A#              F#   /G#/F#/G#/F#
    G|---6-----------|----------------|
    D|-8---8-6h8-6h8-|-4--4--6-4-6-4--|  x4
    A|---------------|----------------|
    E|---------------|----------------|
    
    Chorus:
      C#                  F#             G#
    G|---------|---------|---------|-----------|
    D|---------|---------|---------|-----------|  
    A|---------|-----7-8-|-9-9-9-9-|-9-9-11-11-|
    E|-9-9-9-9-|-9-9-----|---------|-----------|
    
      C#                  F#            
    G|---------|---------|---------|-----------|
    D|---------|---------|---------|-----------|  
    A|---------|-----7-8-|-9-9-9-9-|-9-9-------|
    E|-9-9-9-9-|-9-9-----|---------|-----------|
    
    Main Riff x4
    
    Chorus
    
    Break:
    
            A#	            A#
    G|---------|---------|---------|---------|
    D|---------|---------|---------|---------|  
    A|---------|---------|---------|---------|
    E|-------6-|---------|-------6-|---------|
      Bu-uh-uhg-man,      bu-uh-uhg-man
    
            A#	            A#
    G|---------|---------|---------|---------|
    D|---------|---------|---------|---------|  
    A|---------|---------|---------|---------|
    E|-------6-|---------|-------6-|---------|
      Bu-uh-uhg-man,      waaaaa!
    
    Main Riff (for as long as you can take it)
    
    Then you move into the outro, where you play anything, 
    but here some riffs Alex plays on the recond:
    
    G|---------|---------|---------|---------|
    D|-----6h8-|-----6h8-|-----6h8-|-----6h8-| 
    A|---------|---------|---------|---------|
    E|-4h6-----|-4h6-----|-4h6-----|-4h6-----|
        
    G|--------|----------|----------|------------|
    D|-8--8-8-|-6h8--8-8-|-6h8--8-8-|-6h8----6-7-|  (repeat)
    A|--------|----------|----------|------8-----|
    E|--------|----------|----------|------------|
       
            ***
    G|------------|----------|
    D|-8--8888888-|---6-7-8--|  (repeat)
    A|------------|-8--------|  (*** really rapid-fire notes)
    E|------------|----------|
     

    Тональность:

    Нет текста!



    Назад
    Рекомендуем посмотреть другие песни исполнителя «Blur»:

    • Комментарии Facebook ()
    • Комментарии ВКонтакте



    Добавить в Избранное Браузера
    Сохранить здесь Очистить


    x

    0


    +
    -

    +
    -

    -

    Авторизация





    Зарегистрироваться

    M

    Дата и время

    • 13:19:14
       

    Социальные ссылки


    Наши приложения

    • Muzbank App Play Market
    • Muzbank Amazon App