MUZBANK



A Most Complete Bank Of Music Information

МУЗЫКАЛЬНО-ИНФОРМАЦИОННЫЙ БАНК

Поиск по сайту







    BBlur • Pop Scene (аккорды и текст - chords & lyrics)


    334

    Print

    Видео «Pop Scene (Blur)»

    Видео клипы к песне подбираются автоматически сайтом youtube. Возможны некоторые несоответствия клипов песне.

    ↑ Спрятать рекламу ↑



    Download


    INTRO (4x) |1,2,3.
    `
    ||-----------------|-----------------|-----------------|-----------------||
    |*---------------5-|---------------5-|-----------------|---------7-5-7---*|
    |*-7-7-7-7-7-5-7---|---7---7-7-5-7---|---7---7-7-5-7-5-|---0-5-----------*|
    ||-----------------|-----------------|-----------------|-----------------||
    
    
    +-----------------------------------
    |4.
    `
    |-----------------|-----------------||
    |---------------5-|---0-5---7-5-7---||
    |---7---7-7-5-7---|-----------------||
    |-----------------|-----------------||
    
    
    VERSE (6x)
    
    ||-----------------|-----------------|-----------------|-----------------||
    |*--------/7-------|-----------------|--------/5-------|-----------------*|
    |*-5-3-5-----------|-----------------|-3-2-3-----------|-----------------*|
    ||-----------1---5-|---5-3-5---5-3-5-|-----------1---5-|---5-3-5---5-3-5-||
    
    
    CONNECTING BAR #1
    
    |-----------------||
    |-----------------||
    |-0-0-3-3-5-5-7-7-||
    |-----------------||
    
    
    CHORUS (2x)
    
    ||-----------------|-----------------||-----------------||
    |*---------------5-|---5-5-----------*|-----------------||
    |*-7-7-7-7-7-5-7---|-------7---7-5-7-*|---7-7-----1-1-1-||
    ||-----------------|-----------------||-----------------||
    
    
    repeat VERSE (6x)
    repeat CONNECTING BAR #1
    repeat CHORUS
    repeat INTRO (4x)
    
    +-----------------------------------
    MIDDLE SECTION |1.
    `
    ||-----------------|-----------------|-----------------|-----------------||
    |*--------/7-------|-----------------|-----------------|-----------------*|
    |*-5-3-5-----------|-----------------|-----------2---2-|-0-----0-2-0/7---*|
    ||-----------1---5-|---5-3-5---5-3-5-|-2-0-2---3-------|-----------------||
    
    
    +-----------------------------------
    |2.
    `
    |-----------------|-----------------|
    |-----------------|-----------------|
    |---------------2-|-0-----0-0-0---0-|
    |-2-0-2---3-2-3---|-------------3---|
    
    
    |-----------------|-----------------|-----------------|-----------------|
    |--------/7-------|-----------------|-----------------|-----------------|
    |-5-3-5-----------|-----------------|-2-0-2-3---2-3-0-|---0-------------|
    |-----------1---5-|---5-3-5---5-3-5-|-----------------|-------3-5-3-5-3-|
    
    
    |-----------------|-----------------|-----------------|-----------------||
    |--------/7-------|-----------------|-----------------|-----------------*|
    |-5-3-5-----------|-----------------|---------------2-|-0-----0-0-------*|
    |-----------1---5-|---5-3-5---5-3-5-|-2-0-2---3-2-3---|-----------2-0-2-||
    
    
    repeat CONNECTING BAR #1
    repeat CHORUS
    
    
    CONNECTING BAR #2
    
    |-----------------||
    |-0-0-0-0---------||
    |-----------------||
    |---------1-1-1-1-||
    
    
    repeat CONNECTING BAR #1
    repeat CHORUS
    
    
    END
    
    |-----------------||
    |-0---------------||
    |-----------------||
    |-----------------||
    

    Тональность:

    Нет текста!



    Назад
    Рекомендуем посмотреть другие песни исполнителя «Blur»:

    • Комментарии Facebook ()
    • Комментарии ВКонтакте



    Добавить в Избранное Браузера
    Сохранить здесь Очистить


    x

    0


    +
    -

    +
    -

    -

    Авторизация





    Зарегистрироваться

    M

    Дата и время

    • 14:53:16
       

    Социальные ссылки


    Наши приложения

    • Muzbank App Play Market
    • Muzbank Amazon App