MUZBANK



A Most Complete Bank Of Music Information

МУЗЫКАЛЬНО-ИНФОРМАЦИОННЫЙ БАНК

Поиск по сайту







    BBlur • Sweet Song (аккорды и текст - chords & lyrics)


    308

    Print

    Видео «Sweet Song (Blur)»

    Видео клипы к песне подбираются автоматически сайтом youtube. Возможны некоторые несоответствия клипов песне.

    ↑ Спрятать рекламу ↑



    Download


    Capo 1st Fret
    
    ------------
    Chords
    ------------
    
    D D/C# Bm A G Em F#m F#mmaj7/F C#m
    e|-2---------2---0---0---0---2---------------4------
    B|-3---3-----3---2---0---0---2---------------5------
    G|-2---2-----4---2---0---0---2---------------6------
    D|-0---x-----4---2---0---2---4-----3---------6------
    A|-----4-----2---0---2---2---4-----4---------4------
    E|-------------------3---0---2-----1----------------
    
    -----------
    Intro
    -----------
    
    D D/C#
    e|-----------------------------
    B|-----3---------3-------------
    G|---2---------2---2-----------
    D|-0---------------------------
    A|--------2-4------------------
    E|-----------------------------
    
    -----------
    Verse 1
    -----------
    
    D D/C# Bm A
    What am I to do
    G A
    Someone is really not happy
    D D/C# Bm A
    Put myself on a line
    G A G
    It seems I never got through to you
    G D
    So I wean myself off slowly
    
    I'm a darkened soul
    My street's all pop music and gold
    Our lives on TV
    You switch off and try to sleep
    People get so lonely
    
    -----------
    Bridge
    -----------
    
    Em A
    I believe I believe I believe
    F#m F#mmaj7/F Em
    Everything's out to sea
    Em A
    I believe I believe I believe I believe
    F#m F#mmaj7/F Em
    It's is the way it should be
    A
    I hope you feel the same
    
    -----------
    Verse 2
    -----------
    
    (Play like Verse 1)
    
    Everyone is dying
    Stop crying now here comes the sun
    I didn't mean to hurt you ow no
    It takes time to see what you've done
    So I wean myself off slowly
    
    -----------
    Bridge
    -----------
    
    (Play like previous)
    
    I believe I believe I believe
    Love is the only one
    I deceive I deceive I deceive I deceive
    Cause I'm not that strong
    Hope you feel the same
    
    -----------
    Verse 3
    -----------
    
    F#m C#m D A
    And now It seems that
    F#m C#m D A
    We're falling apart
    F#m C#m D A
    But I hope I see the good in you come back again
    Bm D/C# D
    I just believed in you
    
    -----------
    Outro
    -----------
    
    D D/C# Bm A G A (A/C#) D
    

    Тональность:

    Нет текста!



    Назад
    Рекомендуем посмотреть другие песни исполнителя «Blur»:

    • Комментарии Facebook ()
    • Комментарии ВКонтакте



    Добавить в Избранное Браузера
    Сохранить здесь Очистить


    x

    0


    +
    -

    +
    -

    -

    Авторизация





    Зарегистрироваться

    M

    Дата и время

    • 07:03:56
       

    Социальные ссылки


    Наши приложения

    • Muzbank App Play Market
    • Muzbank Amazon App