MUZBANK



A Most Complete Bank Of Music Information

МУЗЫКАЛЬНО-ИНФОРМАЦИОННЫЙ БАНК

Поиск по сайту







    BBodyjar • Fragile Happiness (аккорды и текст - chords & lyrics)


    280

    Print

    Видео «Fragile Happiness (Bodyjar)»

    Видео клипы к песне подбираются автоматически сайтом youtube. Возможны некоторые несоответствия клипов песне.

    ↑ Спрятать рекламу ↑



    Download


     
    
    
    SONG: Fragile Happiness
    
    e|-------------------------------------------------|
    B|-------------------------------------------------|
    G|-------------------------------------------------|
    D|---14------------------14------------------------|
    A|---12-----7----9-------12-------7----9---9-9-9---|
    E|----------8----7----------------8----7---7-7-7---|
    
    
    Guitar 1
    e|---12--10-------12-12----13-13-13--12--10-------|
    B|-----------10------------------------------10---|
    G|------------------------------------------------|
    D|------------------------------------------------|
    A|------------------------------------------------|
    E|------------------------------------------------|
    
    Guitar 2
    e|----------------------------------------|
    B|----------------------------------------|
    G|----------------------------------------|
    D|---14-x-x-x-x-14------------------------|
    A|---12-x-x-x-x-12----7-7-7-7--9--9-9-9---|
    E|--------------------8-8-8-8--7--7-7-7---|
    
    e|---------------------------------------------------|
    B|---------------------------------------------------|
    G|---------------------------------------------------|
    D|------------7-7-7-7--9-9-9-9--12x12x12--14x14x14---|
    A|---7-7-7-7--5-5-5-5--7-7-7-7--10x10x10--12x12x12---|
    E|---5-5-5-5-----------------------------------------|
    With this fragile happiness, I start over today...
    
    Outro
    e|-------------------|
    B|----3-2-h3-p2--0---|
    G|-------------------|
    D|-------------------|
    A|-------------------|
    E|-------------------|
     

    Тональность:

    Нет текста!



    Назад
    Рекомендуем посмотреть другие песни исполнителя «Bodyjar»:

    • Комментарии Facebook ()
    • Комментарии ВКонтакте



    Добавить в Избранное Браузера
    Сохранить здесь Очистить


    x

    0


    +
    -

    +
    -

    -

    Авторизация





    Зарегистрироваться

    M

    Дата и время

    • 01:17:07
       

    Социальные ссылки


    Наши приложения

    • Muzbank App Play Market
    • Muzbank Amazon App