MUZBANK



A Most Complete Bank Of Music Information

МУЗЫКАЛЬНО-ИНФОРМАЦИОННЫЙ БАНК

Поиск по сайту







    BBon Jovi • Always (solo ver 2) (аккорды и текст - chords & lyrics)


    344

    Print

    Видео «Always (solo ver 2) (Bon Jovi)»

    Видео клипы к песне подбираются автоматически сайтом youtube. Возможны некоторые несоответствия клипов песне.

    ↑ Спрятать рекламу ↑



    Download


     
    
    
    fb - Full Bend
    hb - Half Bend
    h - Hammer On
    p - Pull Off
    / - Slide Down
     - Slide Up
    
    Tab By:Ertunc Kocakoglu (Mr.Sambo)
    
    
    |-----------------------------------|
    |-----------------------------------|
    |-----4h6-----4-6-------------------|
    |-4/6-----4/6-----4/6-4/6p4/2-4p2---|
    |---------------------------------2-|
    |-----------------------------------|
    
    |--------------------------------------------------------------|
    |--------------------------------------------------------------|
    |--------------------------------------------------------------|
    |---------2-4fbp2-------2-4fb-2-------2-4fb-2---2-4-4fbp2-4~~--|
    |-----2-4---------4-2-4---------4-2-4---------4----------------|
    |-2/4----------------------------------------------------------|
    
    |-13----12---7---7/12-12/7-7---------------7fb-|
    |-14p12-129-9p7-7/12-12/7--9p7-75-7fbp5-7--|
    |----------------------------------------------|
    |----------------------------------------------|
    |----------------------------------------------|
    |----------------------------------------------|
    
    |----------12-12----12------12----12-12-12-------------12-14fbp12-14-16hb-16----|
    |-14-12-14-14-12----12-p-14-12----12-14-14-12----12-14-----------------------14-|
    |----------------13------------13-------------13--------------------------------|
    |-------------------------------------------------------------------------------|
    |-------------------------------------------------------------------------------|
    |-------------------------------------------------------------------------------|
     

    Тональность:

    Нет текста!



    Назад
    Рекомендуем посмотреть другие песни исполнителя «Bon Jovi»:

    • Комментарии Facebook ()
    • Комментарии ВКонтакте



    Добавить в Избранное Браузера
    Сохранить здесь Очистить


    x

    0


    +
    -

    +
    -

    -

    Авторизация





    Зарегистрироваться

    M

    Дата и время

    • 11:43:45
       

    Социальные ссылки


    Наши приложения

    • Muzbank App Play Market
    • Muzbank Amazon App