MUZBANK



A Most Complete Bank Of Music Information

МУЗЫКАЛЬНО-ИНФОРМАЦИОННЫЙ БАНК

Поиск по сайту







    BBon Jovi • Its My Life (аккорды и текст - chords & lyrics)


    1575

    Print

    Видео «Its My Life (Bon Jovi)»

    Видео клипы к песне подбираются автоматически сайтом youtube. Возможны некоторые несоответствия клипов песне.

    ↑ Спрятать рекламу ↑



    Download


     
    
    
    Bon Jovi - It’s My Life
    
    I believe this song is actually played on a seven-string or a baritone, but I
    tabbed it for a standard guitar. If you do have one, play the C power chords low.
    
    Intro:
    E|----------------|----------------|
    B|----------------|----------------|
    G|-5--5-----------|-5--5-----------|
    D|-5--5-----------|-5--5-----------|
    A|-3--3-----------|-3--3-----------|
    E|----------------|----------------|
    
    Verse:
    E|-------------------|-------------------|
    B|-------------------|-------------------|
    G|*5-(5)-------------|-5--5-x-x-5-5-----*|
    D|*5-(5)-------------|-5--5-x-x-5-5-----*|
    A|-3-(3)-------------|-3--3-x-x-3-3------|
    E|-------------------|-------------------|
         (^ play only at the second time)
    
    E|------------------|------------------|------|
    B|------------------|------------------|------|
    G|-5===========-x-x-|------------------|-rest-|
    D|-5===========-x-x-|-3--3-------------|------|
    A|-3===========-x-x-|-3--3-------------|------|
    E|------------------|-1--1-------------|------|
    
    Chorus:
    E|-------------|-------------|-------------|-------------|
    B|-------------|-------------|-------------|-------------|
    G|*5========-5-|-5========-5-|-8========-8-|-7========-7-|
    D|*5========-5-|-6========-6-|-8========-8-|-8========-8-|
    A|-3========-3-|-6========-6-|-6========-6-|-5========-5-|
    E|-------------|-4========-4-|-------------|-------------|
    
    E|-------------|-------------|-------------|-------------|
    B|-------------|-------------|-------------|-------------|
    G|-5========-5-|-5==========-|-------------|------------*|
    D|-5========-5-|-6==========-|-8==========-|------------*|
    A|-3========-3-|-6==========-|-8==========-|-------------|
    E|-------------|-4==========-|-6==========-|-6=====7=====|
    
    Repeat Intro
    
    Repeat Verse, at the end let the F Power Chord ring
    
    Repeat Chorus
    
    Bridge:
    
    1st guitar:
    E|---------------|---------------|---------------|
    B|---------------|---------------|---------------|
    G|*-------------*|*-------------*|*-------------*|
    D|*6-6--x-6-6--x*|*8-8--x-8-8--x*|*6-6--x-6-6--x*|
    A|-6-6--x-6-6--x-|-8-8--x-8-8--x-|-6-6--x-6-6--x-|
    E|-4-4--x-4-4--x-|-6-6--x-6-6--x-|-4-4--x-4-4--x-|
    
    E|---------------|-----------------|
    B|---------------|-----------------|
    G|---------------|-----------------|
    D|-3-3--x-3-3--x-|-3-3-3-3-3-3-3-3-|
    A|-3-3--x-3-3--x-|-3-3-3-3-3-3-3-3-|
    E|-1-1--x-1-1--x-|-1-1-1-1-1-1-1-1-|
                      P.M. --==release
    
    2nd guitar(solo):
    E|-------------------------------------------------------------------|
    B|-----------------------------------7b8--8-8-8b76-4-6--------------|
    G|-7b8b7b8-etc........7b8b7p5----5-8--------------------3-5~~--------|
    D|-----------------------------6---------------------------------1---|
    A|-------------------------------------------------------------1---1-|
    E|-----------------------------------------------------------3-------|
    
    Both guitars:
    E|---------------------|
    B|---------------------|
    G|-5===========-5--5---|
    D|-5===========-5--5---|
    A|-3===========-3--3---|
    E|---------------------|
    
    Repeat chorus 4x
     

    Тональность:

    Нет текста!



    Назад
    Рекомендуем посмотреть другие песни исполнителя «Bon Jovi»:

    • Комментарии Facebook ()
    • Комментарии ВКонтакте



    Добавить в Избранное Браузера
    Сохранить здесь Очистить


    x

    0


    +
    -

    +
    -

    -

    Авторизация





    Зарегистрироваться

    M

    Дата и время

    • 10:04:48
       

    Социальные ссылки


    Наши приложения

    • Muzbank App Play Market
    • Muzbank Amazon App