MUZBANK



A Most Complete Bank Of Music Information

МУЗЫКАЛЬНО-ИНФОРМАЦИОННЫЙ БАНК

Поиск по сайту







    BBon Jovi • Lay Your Hands On Me (аккорды и текст - chords & lyrics)


    212

    Print

    Видео «Lay Your Hands On Me (Bon Jovi)»

    Видео клипы к песне подбираются автоматически сайтом youtube. Возможны некоторые несоответствия клипов песне.

    ↑ Спрятать рекламу ↑



    Download



     
    
    
    -------------------------------------------------------------------------------
    			     Bon Jovi - Lay Your Hands On Me
    -------------------------------------------------------------------------------
    
    Tabbed by : Davie Reid
    Email : Dannyreid39@aol.com
    Version : Live Crush Video/DVD
    
    | /  slide up
    |   slide down
    | h  hammer-on
    | p  pull-off
    | ~  vibrato
    | *  harmonic
    | x  Mute note
    
    e|----------------------------|----------------------------------------------|
    B|----------------------------|--12p9-11-9--12p9-11-9--12p11p9~~~~-----------|
    G|----------------------------|----------------------------------------------|
    D|-9-7-9----------------------|----------------------------------------------|
    A|-9-7-9--------3-5-------3-5-|----------------------------------------------|
    E|-7-5-7--3-4-5-----3-4-5-----|----------------------------------------------|
              p p p   * p p p   *
    
    e|---------------------------------------------------------------------------|
    B|---------------------------------------------------------------------------|
    G|-----------------------------------------------------------11p910p912p910p9|
    D|----------------------------------9~~--11p910p912p9p10p9-------------------|
    A|--9-10-11-9-10-11-9-10-11-9-10-11------------------------------------------|
    G|---------------------------------------------------------------------------|
        p pp ** p pp ** p pp ** p pp ** *
    e|---------------------------------------------------------------------------|
    B|--(11p9-10p9-12p9-10p9-11p9)-10~~-12-12-12-12-12-12~~-11p9-10p9------------|
    G|--------repeat-4-times------------------------------------------10-11-9~~~-|
    D|---------------------------------------------------------------------------|
    A|---------------------------------------------------------------------------|
    E|---------------------------------------------------------------------------|
                                   **   bb
    e|----------------------------------------|----------------------------------|
    B|----------------------------------------|--12p9---11~~~~--11p9-10p9-11p9---|
    G|----------------------------------------|-4times---------------------------|
    D|----------------------------------------|----------------------------------|
    A|------3/73/73/72~~~-3/73/73/////>>-|----------------------------------|
    E|----------------------------------------|----------------------------------|
                        *
    e|---------------------------------------------------------------------------|
    B|------------------999h11 999h11 999h11-99 12~~~~---------------------------|
    G|-11-12-9-12-9~~~-----------------------------------------------------------|
    D|---------------------------------------------------------------------------|
    A|---------------------------------------------------------------------------|
    E|---------------------------------------------------------------------------|
                                                **
    e|-------------------------------------------|-------------------------------|
    B|--8-9-11-12---12-12-12-12-11-9-7~~~~ 

    Тональность:

    Нет текста!



    Назад
    Рекомендуем посмотреть другие песни исполнителя «Bon Jovi»:

    • Комментарии Facebook ()
    • Комментарии ВКонтакте



    Добавить в Избранное Браузера
    Сохранить здесь Очистить


    x

    0


    +
    -

    +
    -

    -

    Авторизация





    Зарегистрироваться

    M

    Дата и время

    • 01:26:06
       

    Социальные ссылки


    Наши приложения

    • Muzbank App Play Market
    • Muzbank Amazon App