MUZBANK



A Most Complete Bank Of Music Information

МУЗЫКАЛЬНО-ИНФОРМАЦИОННЫЙ БАНК

Поиск по сайту







    BBouncing Souls • I Like Your Mom (аккорды и текст - chords & lyrics)


    285

    Print

    Видео «I Like Your Mom (Bouncing Souls)»

    Видео клипы к песне подбираются автоматически сайтом youtube. Возможны некоторые несоответствия клипов песне.

    ↑ Спрятать рекламу ↑



    Download


     
    
    
    Band: The bouncing souls
    Song: I like your mom
    Album: The good, the bad and the argyle
    Tabbed by: SK8BOB
    E-Mail: sk8bob@geocities.com
    
    play 4 times
    
    G]--------------]
    D]--------------]
    A]-5> 3-------]
    E]----------5--]
    
    play 2 times
    
    G]-------------]
    D]-------------]
    A]-5>-33-----]
    E]--------------]
    
    play 4 times
    
    G]----------------------]
    D]----------------------]
    A] 5>-33-------------]
    E]----------55---------]
    
    play 2 times
    
    G]-----------------------------------]
    D]-----7--5-4---------2-3--55----]
    A]-5>---------5--3>---------------]
    E]------------------------------------]
    
    Play 2 times
    
    G]------------]
    D]-2>-0>---]
    A]------------]
    E]------------]
    
    Play 4 times
    
    G]--------------]
    D]-2>-00-----]
    A]---------22--]
    E]--------------]
     

    Тональность:

    Нет текста!



    Назад
    Рекомендуем посмотреть другие песни исполнителя «Bouncing Souls»:

    • Комментарии Facebook ()
    • Комментарии ВКонтакте



    Добавить в Избранное Браузера
    Сохранить здесь Очистить


    x

    0


    +
    -

    +
    -

    -

    Авторизация





    Зарегистрироваться

    M

    Дата и время

    • 10:07:43
       

    Социальные ссылки


    Наши приложения

    • Muzbank App Play Market
    • Muzbank Amazon App