MUZBANK



A Most Complete Bank Of Music Information

МУЗЫКАЛЬНО-ИНФОРМАЦИОННЫЙ БАНК

Поиск по сайту







    BBouncing Souls • Serenity (аккорды и текст - chords & lyrics)


    263

    Print

    Видео «Serenity (Bouncing Souls)»

    Видео клипы к песне подбираются автоматически сайтом youtube. Возможны некоторые несоответствия клипов песне.

    ↑ Спрятать рекламу ↑



    Download


     
    
    
    artist: bouncing souls
    song: serenity
    
    intro and verse
    G:----------------------------------
    D:----------------------------------
    A:--------7-77-77775-5-5557-77-7777-
    E:-5-5-555--------------------------
    
    
    G:------------------------------
    D:-7--7--7-6-5-4---------4-5-6--
    A:---------------7--7--7--------
    E:------------------------------
    
    
    end part
    G:---------------------------------
    D:77777765------65------65------56-
    A:--------777777--555555--777777---
    E:---------------------------------
    
    end part continued
    G:-----------------------------------
    D:77777765------65------65----5567---
    A:--------777777--555555--7777----5--
    E:-----------------------------------
    
    
    
    I think I messed up on the end, so send corrections if i did.
    send corrections, comments, and questions to bbfan@bellatlantic.net
     

    Тональность:

    Нет текста!



    Назад
    Рекомендуем посмотреть другие песни исполнителя «Bouncing Souls»:

    • Комментарии Facebook ()
    • Комментарии ВКонтакте



    Добавить в Избранное Браузера
    Сохранить здесь Очистить


    x

    0


    +
    -

    +
    -

    -

    Авторизация





    Зарегистрироваться

    M

    Дата и время

    • 09:13:22
       

    Социальные ссылки


    Наши приложения

    • Muzbank App Play Market
    • Muzbank Amazon App